  0
SECTION
  2
HEADER
  9
$ACADVER
  1
AC1015
  9
$ACADMAINTVER
 70
     6
  9
$DWGCODEPAGE
  3
ANSI_1252
  9
$INSBASE
 10
0.0
 20
0.0
 30
0.0
  9
$EXTMIN
 10
-81.9480962977
 20
128.6729432369
 30
0.0
  9
$EXTMAX
 10
573.4209635913
 20
959.6729432369
 30
0.0
  9
$LIMMIN
 10
0.0
 20
0.0
  9
$LIMMAX
 10
420.0
 20
297.0
  9
$ORTHOMODE
 70
     0
  9
$REGENMODE
 70
     1
  9
$FILLMODE
 70
     1
  9
$QTEXTMODE
 70
     0
  9
$MIRRTEXT
 70
     1
  9
$LTSCALE
 40
1.0
  9
$ATTMODE
 70
     1
  9
$TEXTSIZE
 40
3.5
  9
$TRACEWID
 40
1.0
  9
$TEXTSTYLE
  7
Standard
  9
$CLAYER
  8
0
  9
$CELTYPE
  6
ByLayer
  9
$CECOLOR
 62
   256
  9
$CELTSCALE
 40
1.0
  9
$DISPSILH
 70
     0
  9
$DIMSCALE
 40
1.0
  9
$DIMASZ
 40
3.302
  9
$DIMEXO
 40
1.0
  9
$DIMDLI
 40
3.75
  9
$DIMRND
 40
0.0
  9
$DIMDLE
 40
0.0
  9
$DIMEXE
 40
1.0
  9
$DIMTP
 40
0.0
  9
$DIMTM
 40
0.0
  9
$DIMTXT
 40
3.5
  9
$DIMCEN
 40
2.5
  9
$DIMTSZ
 40
0.0
  9
$DIMTOL
 70
     0
  9
$DIMLIM
 70
     0
  9
$DIMTIH
 70
     1
  9
$DIMTOH
 70
     1
  9
$DIMSE1
 70
     0
  9
$DIMSE2
 70
     0
  9
$DIMTAD
 70
     1
  9
$DIMZIN
 70
     1
  9
$DIMBLK
  1

  9
$DIMASO
 70
     1
  9
$DIMSHO
 70
     1
  9
$DIMPOST
  1

  9
$DIMAPOST
  1

  9
$DIMALT
 70
     0
  9
$DIMALTD
 70
     3
  9
$DIMALTF
 40
0.0393700787
  9
$DIMLFAC
 40
1.0
  9
$DIMTOFL
 70
     1
  9
$DIMTVP
 40
0.0
  9
$DIMTIX
 70
     0
  9
$DIMSOXD
 70
     0
  9
$DIMSAH
 70
     0
  9
$DIMBLK1
  1

  9
$DIMBLK2
  1

  9
$DIMSTYLE
  2
ISO-25
  9
$DIMCLRD
 70
     0
  9
$DIMCLRE
 70
     0
  9
$DIMCLRT
 70
     0
  9
$DIMTFAC
 40
1.0
  9
$DIMGAP
 40
1.524
  9
$DIMJUST
 70
     0
  9
$DIMSD1
 70
     0
  9
$DIMSD2
 70
     0
  9
$DIMTOLJ
 70
     0
  9
$DIMTZIN
 70
     1
  9
$DIMALTZ
 70
     0
  9
$DIMALTTZ
 70
     0
  9
$DIMUPT
 70
     0
  9
$DIMDEC
 70
     2
  9
$DIMTDEC
 70
     2
  9
$DIMALTU
 70
     2
  9
$DIMALTTD
 70
     3
  9
$DIMTXSTY
  7
Standard
  9
$DIMAUNIT
 70
     0
  9
$DIMADEC
 70
     2
  9
$DIMALTRND
 40
0.0
  9
$DIMAZIN
 70
     0
  9
$DIMDSEP
 70
    44
  9
$DIMATFIT
 70
     3
  9
$DIMFRAC
 70
     0
  9
$DIMLDRBLK
  1

  9
$DIMLUNIT
 70
     2
  9
$DIMLWD
 70
    -2
  9
$DIMLWE
 70
    -2
  9
$DIMTMOVE
 70
     0
  9
$LUNITS
 70
     2
  9
$LUPREC
 70
     2
  9
$SKETCHINC
 40
1.0
  9
$FILLETRAD
 40
10.0
  9
$AUNITS
 70
     0
  9
$AUPREC
 70
     2
  9
$MENU
  1
.
  9
$ELEVATION
 40
0.0
  9
$PELEVATION
 40
0.0
  9
$THICKNESS
 40
0.0
  9
$LIMCHECK
 70
     0
  9
$CHAMFERA
 40
0.0
  9
$CHAMFERB
 40
0.0
  9
$CHAMFERC
 40
0.0
  9
$CHAMFERD
 40
0.0
  9
$SKPOLY
 70
     0
  9
$TDCREATE
 40
2458914.47519147
  9
$TDUCREATE
 40
2458914.47519147
  9
$TDUPDATE
 40
2458914.47527684
  9
$TDUUPDATE
 40
2458914.47527684
  9
$TDINDWG
 40
0.0000000116
  9
$TDUSRTIMER
 40
0.0000000116
  9
$USRTIMER
 70
     1
  9
$ANGBASE
 50
0.0
  9
$ANGDIR
 70
     0
  9
$PDMODE
 70
     0
  9
$PDSIZE
 40
-1.0
  9
$PLINEWID
 40
0.0
  9
$SPLFRAME
 70
     0
  9
$SPLINETYPE
 70
     6
  9
$SPLINESEGS
 70
     8
  9
$HANDSEED
  5
27F
  9
$SURFTAB1
 70
     6
  9
$SURFTAB2
 70
     6
  9
$SURFTYPE
 70
     6
  9
$SURFU
 70
     6
  9
$SURFV
 70
     6
  9
$UCSBASE
  2

  9
$UCSNAME
  2

  9
$UCSORG
 10
0.0
 20
0.0
 30
0.0
  9
$UCSXDIR
 10
1.0
 20
0.0
 30
0.0
  9
$UCSYDIR
 10
0.0
 20
1.0
 30
0.0
  9
$UCSORTHOREF
  2

  9
$UCSORTHOVIEW
 70
     0
  9
$UCSORGTOP
 10
0.0
 20
0.0
 30
0.0
  9
$UCSORGBOTTOM
 10
0.0
 20
0.0
 30
0.0
  9
$UCSORGLEFT
 10
0.0
 20
0.0
 30
0.0
  9
$UCSORGRIGHT
 10
0.0
 20
0.0
 30
0.0
  9
$UCSORGFRONT
 10
0.0
 20
0.0
 30
0.0
  9
$UCSORGBACK
 10
0.0
 20
0.0
 30
0.0
  9
$PUCSBASE
  2

  9
$PUCSNAME
  2

  9
$PUCSORG
 10
0.0
 20
0.0
 30
0.0
  9
$PUCSXDIR
 10
1.0
 20
0.0
 30
0.0
  9
$PUCSYDIR
 10
0.0
 20
1.0
 30
0.0
  9
$PUCSORTHOREF
  2

  9
$PUCSORTHOVIEW
 70
     0
  9
$PUCSORGTOP
 10
0.0
 20
0.0
 30
0.0
  9
$PUCSORGBOTTOM
 10
0.0
 20
0.0
 30
0.0
  9
$PUCSORGLEFT
 10
0.0
 20
0.0
 30
0.0
  9
$PUCSORGRIGHT
 10
0.0
 20
0.0
 30
0.0
  9
$PUCSORGFRONT
 10
0.0
 20
0.0
 30
0.0
  9
$PUCSORGBACK
 10
0.0
 20
0.0
 30
0.0
  9
$USERI1
 70
     0
  9
$USERI2
 70
     0
  9
$USERI3
 70
     0
  9
$USERI4
 70
     0
  9
$USERI5
 70
     0
  9
$USERR1
 40
0.0
  9
$USERR2
 40
0.0
  9
$USERR3
 40
0.0
  9
$USERR4
 40
0.0
  9
$USERR5
 40
0.0
  9
$WORLDVIEW
 70
     1
  9
$SHADEDGE
 70
     3
  9
$SHADEDIF
 70
    70
  9
$TILEMODE
 70
     0
  9
$MAXACTVP
 70
    64
  9
$PINSBASE
 10
0.0
 20
0.0
 30
0.0
  9
$PLIMCHECK
 70
     0
  9
$PEXTMIN
 10
-81.9480962977
 20
128.6729432369
 30
0.0
  9
$PEXTMAX
 10
573.4209635913
 20
959.6729432369
 30
0.0
  9
$PLIMMIN
 10
0.0
 20
0.0
  9
$PLIMMAX
 10
0.0
 20
0.0
  9
$UNITMODE
 70
     0
  9
$VISRETAIN
 70
     1
  9
$PLINEGEN
 70
     0
  9
$PSLTSCALE
 70
     1
  9
$TREEDEPTH
 70
  3020
  9
$CMLSTYLE
  2
Standard
  9
$CMLJUST
 70
     0
  9
$CMLSCALE
 40
20.0
  9
$PROXYGRAPHICS
 70
     1
  9
$MEASUREMENT
 70
     1
  9
$CELWEIGHT
370
    -1
  9
$ENDCAPS
280
     0
  9
$JOINSTYLE
280
     0
  9
$LWDISPLAY
290
     1
  9
$INSUNITS
 70
     4
  9
$HYPERLINKBASE
  1

  9
$STYLESHEET
  1

  9
$XEDIT
290
     1
  9
$CEPSNTYPE
380
     0
  9
$PSTYLEMODE
290
     1
  9
$FINGERPRINTGUID
  2
{023e4c1f-a6c7-499e-a4b6-b4a3e42c1393}
  9
$VERSIONGUID
  2
{FAEB1C32-E019-11D5-929B-00C0DF256EC4}
  9
$EXTNAMES
290
     1
  9
$PSVPSCALE
 40
0.0
  9
$OLESTARTUP
290
     0
  0
ENDSEC
  0
SECTION
  2
CLASSES
  0
CLASS
  1
ACDBDICTIONARYWDFLT
  2
AcDbDictionaryWithDefault
  3
ObjectDBX Classes
 90
        0
280
     0
281
     0
  0
CLASS
  1
VISUALSTYLE
  2
AcDbVisualStyle
  3
ObjectDBX Classes
 90
     4095
280
     0
281
     0
  0
CLASS
  1
MATERIAL
  2
AcDbMaterial
  3
ObjectDBX Classes
 90
     1153
280
     0
281
     0
  0
CLASS
  1
SCALE
  2
AcDbScale
  3
ObjectDBX Classes
 90
     1153
280
     0
281
     0
  0
CLASS
  1
TABLESTYLE
  2
AcDbTableStyle
  3
ObjectDBX Classes
 90
     4095
280
     0
281
     0
  0
CLASS
  1
MLEADERSTYLE
  2
AcDbMLeaderStyle
  3
ACDB_MLEADERSTYLE_CLASS
 90
     4095
280
     0
281
     0
  0
CLASS
  1
SUN
  2
AcDbSun
  3
SCENEOE
 90
     1153
280
     0
281
     0
  0
CLASS
  1
ACDBPLACEHOLDER
  2
AcDbPlaceHolder
  3
ObjectDBX Classes
 90
        0
280
     0
281
     0
  0
CLASS
  1
LAYOUT
  2
AcDbLayout
  3
ObjectDBX Classes
 90
        0
280
     0
281
     0
  0
ENDSEC
  0
SECTION
  2
TABLES
  0
TABLE
  2
VPORT
  5
8
330
0
100
AcDbSymbolTable
 70
     1
  0
VPORT
  5
29
330
8
100
AcDbSymbolTableRecord
100
AcDbViewportTableRecord
  2
*Active
 70
     0
 10
0.0
 20
0.0
 11
1.0
 21
1.0
 12
245.7364336468
 22
544.1729432369
 13
0.0
 23
0.0
 14
10.0
 24
10.0
 15
10.0
 25
10.0
 16
0.0
 26
0.0
 36
1.0
 17
0.0
 27
0.0
 37
0.0
 40
847.62
 41
0.7886510949
 42
50.0
 43
0.0
 44
0.0
 50
0.0
 51
0.0
 71
     0
 72
   100
 73
     1
 74
     3
 75
     0
 76
     0
 77
     0
 78
     0
281
     0
 65
     1
110
0.0
120
0.0
130
0.0
111
1.0
121
0.0
131
0.0
112
0.0
122
1.0
132
0.0
 79
     0
146
0.0
  0
ENDTAB
  0
TABLE
  2
LTYPE
  5
5
330
0
100
AcDbSymbolTable
 70
     6
  0
LTYPE
  5
14
330
5
100
AcDbSymbolTableRecord
100
AcDbLinetypeTableRecord
  2
ByBlock
 70
     0
  3

 72
    65
 73
     0
 40
0.0
  0
LTYPE
  5
15
330
5
100
AcDbSymbolTableRecord
100
AcDbLinetypeTableRecord
  2
ByLayer
 70
     0
  3

 72
    65
 73
     0
 40
0.0
  0
LTYPE
  5
16
330
5
100
AcDbSymbolTableRecord
100
AcDbLinetypeTableRecord
  2
Continuous
 70
     0
  3
Solid line
 72
    65
 73
     0
 40
0.0
  0
LTYPE
  5
6E
330
5
100
AcDbSymbolTableRecord
100
AcDbLinetypeTableRecord
  2
HIDDEN
 70
     0
  3
Hidden __ __ __ __ __ __ __ __ __ __ __ __ __ __
 72
    65
 73
     2
 40
1.905
 49
1.27
 74
     0
 49
-0.635
 74
     0
  0
LTYPE
  5
6F
330
5
100
AcDbSymbolTableRecord
100
AcDbLinetypeTableRecord
  2
PHANTOM
 70
     0
  3
Phantom ______  __  __  ______  __  __  ______
 72
    65
 73
     6
 40
12.7
 49
6.35
 74
     0
 49
-1.27
 74
     0
 49
1.27
 74
     0
 49
-1.27
 74
     0
 49
1.27
 74
     0
 49
-1.27
 74
     0
  0
LTYPE
  5
70
330
5
100
AcDbSymbolTableRecord
100
AcDbLinetypeTableRecord
  2
CENTER
 70
     0
  3
Center ____ _ ____ _ ____ _ ____ _ ____ _ ____
 72
    65
 73
     4
 40
10.16
 49
6.35
 74
     0
 49
-1.27
 74
     0
 49
1.27
 74
     0
 49
-1.27
 74
     0
  0
LTYPE
  5
71
330
5
100
AcDbSymbolTableRecord
100
AcDbLinetypeTableRecord
  2
CENTERX2
 70
     0
  3
Center (2x) ________  __  ________  __  _____
 72
    65
 73
     4
 40
20.32
 49
12.7
 74
     0
 49
-2.54
 74
     0
 49
2.54
 74
     0
 49
-2.54
 74
     0
  0
LTYPE
  5
72
330
5
100
AcDbSymbolTableRecord
100
AcDbLinetypeTableRecord
  2
DOT2
 70
     0
  3
Dot (.5x) ........................................
 72
    65
 73
     2
 40
0.635
 49
0.0
 74
     0
 49
-0.635
 74
     0
  0
ENDTAB
  0
TABLE
  2
LAYER
  5
2
330
0
100
AcDbSymbolTable
 70
     1
  0
LAYER
  5
10
330
2
100
AcDbSymbolTableRecord
100
AcDbLayerTableRecord
  2
0
 70
     0
 62
     7
  6
Continuous
370
    -3
390
F
  0
ENDTAB
  0
TABLE
  2
STYLE
  5
3
330
0
100
AcDbSymbolTable
 70
     1
  0
STYLE
  5
11
330
3
100
AcDbSymbolTableRecord
100
AcDbTextStyleTableRecord
  2
Standard
 70
     0
 40
0.0
 41
1.0
 50
0.0
 71
     0
 42
3.5
  3
txt
  4

  0
ENDTAB
  0
TABLE
  2
VIEW
  5
6
330
0
100
AcDbSymbolTable
 70
     0
  0
ENDTAB
  0
TABLE
  2
UCS
  5
7
330
0
100
AcDbSymbolTable
 70
     0
  0
ENDTAB
  0
TABLE
  2
APPID
  5
9
330
0
100
AcDbSymbolTable
 70
     1
  0
APPID
  5
12
330
9
100
AcDbSymbolTableRecord
100
AcDbRegAppTableRecord
  2
ACAD
 70
     0
  0
ENDTAB
  0
TABLE
  2
DIMSTYLE
  5
A
330
0
100
AcDbSymbolTable
 70
     1
100
AcDbDimStyleTable
  0
DIMSTYLE
105
27
330
A
100
AcDbSymbolTableRecord
100
AcDbDimStyleTableRecord
  2
ISO-25
 70
     0
 41
2.5
 42
0.625
 43
3.75
 44
1.25
 73
     0
 74
     0
 77
     1
 78
     8
140
2.5
141
2.5
143
0.0393700787
147
0.625
171
     3
172
     1
178
     0
271
     2
272
     2
274
     3
278
    44
283
     0
284
     8
340
11
  0
ENDTAB
  0
TABLE
  2
BLOCK_RECORD
  5
1
330
0
100
AcDbSymbolTable
 70
     1
  0
BLOCK_RECORD
  5
1F
330
1
100
AcDbSymbolTableRecord
100
AcDbBlockTableRecord
  2
*Model_Space
340
22
  0
BLOCK_RECORD
  5
23
330
1
100
AcDbSymbolTableRecord
100
AcDbBlockTableRecord
  2
*Paper_Space
340
26
  0
BLOCK_RECORD
  5
1B
330
1
100
AcDbSymbolTableRecord
100
AcDbBlockTableRecord
  2
*Paper_Space0
340
1E
  0
ENDTAB
  0
ENDSEC
  0
SECTION
  2
BLOCKS
  0
BLOCK
  5
20
330
1F
100
AcDbEntity
  8
0
100
AcDbBlockBegin
  2
*Model_Space
 70
     0
 10
0.0
 20
0.0
 30
0.0
  3
*Model_Space
  1

  0
ENDBLK
  5
21
330
1F
100
AcDbEntity
  8
0
100
AcDbBlockEnd
  0
BLOCK
  5
24
330
23
100
AcDbEntity
 67
     1
  8
0
100
AcDbBlockBegin
  2
*Paper_Space
 70
     0
 10
0.0
 20
0.0
 30
0.0
  3
*Paper_Space
  1

  0
ENDBLK
  5
25
330
23
100
AcDbEntity
 67
     1
  8
0
100
AcDbBlockEnd
  0
BLOCK
  5
1C
330
1B
100
AcDbEntity
  8
0
100
AcDbBlockBegin
  2
*Paper_Space0
 70
     0
 10
0.0
 20
0.0
 30
0.0
  3
*Paper_Space0
  1

  0
SPLINE
  5
11D
330
1B
100
AcDbEntity
  8
0
  6
Continuous
 62
     7
370
    25
100
AcDbSpline
210
0.0
220
0.0
230
1.0
 70
     8
 71
     3
 72
    17
 73
    13
 74
     0
 42
0.000000001
 43
0.00000001
 40
0.0
 40
0.0
 40
0.0
 40
0.0
 40
0.146047924793169
 40
0.2974663952648565
 40
0.4389079418711302
 40
0.5692761156770818
 40
0.6869589881538042
 40
0.7897608042106251
 40
0.8749295620036817
 40
0.9395614220666876
 40
0.9821002508676099
 40
1.0
 40
1.0
 40
1.0
 40
1.0
 10
668.3848138810525
 20
557.3418871859714
 30
0.0
 10
668.6624110448175
 20
557.0193052830455
 30
0.0
 10
669.2278133109426
 20
556.3622793377815
 30
0.0
 10
670.2222138934986
 20
555.5513985404308
 30
0.0
 10
671.2628027043608
 20
554.8889658931433
 30
0.0
 10
672.2886317932063
 20
554.4010033530783
 30
0.0
 10
673.2541871844179
 20
554.0644889931434
 30
0.0
 10
674.1195470295016
 20
553.8546614777094
 30
0.0
 10
674.846429873764
 20
553.7408625940525
 30
0.0
 10
675.4037952983747
 20
553.6914794617891
 30
0.0
 10
675.7680091372846
 20
553.6754430321797
 30
0.0
 10
675.9429942548692
 20
553.6737218262897
 30
0.0
 10
675.9948185997456
 20
553.6732120665517
 30
0.0
  0
SPLINE
  5
11E
330
1B
100
AcDbEntity
  8
0
  6
Continuous
 62
     7
370
    25
100
AcDbSpline
210
0.0
220
0.0
230
1.0
 70
     8
 71
     3
 72
    16
 73
    12
 74
     0
 42
0.000000001
 43
0.00000001
 40
0.0
 40
0.0
 40
0.0
 40
0.0
 40
0.0125128855058073
 40
0.0331213576262362
 40
0.0651729971936069
 40
0.1510153358145082
 40
0.339668674752917
 40
0.533338015284547
 40
0.7106368527136148
 40
0.866168823754266
 40
1.0
 40
1.0
 40
1.0
 40
1.0
 10
396.1178590745203
 20
553.6742755514306
 30
0.0
 10
396.1553381456793
 20
553.673709706558
 30
0.0
 10
396.2545444973063
 20
553.6722119265
 30
0.0
 10
396.4513217578612
 20
553.6721914619909
 30
0.0
 10
396.8668019490256
 20
553.6800621699215
 30
0.0
 10
397.7899214941751
 20
553.7480256323681
 30
0.0
 10
399.1785043343909
 20
554.027944442155
 30
0.0
 10
400.7577548085393
 20
554.645037190243
 30
0.0
 10
402.1167054978461
 20
555.4720313969509
 30
0.0
 10
403.2143740043351
 20
556.3628831892988
 30
0.0
 10
403.7747626238192
 20
557.0324651353476
 30
0.0
 10
404.0339437559143
 20
557.3421484529123
 30
0.0
  0
SPLINE
  5
121
330
1B
100
AcDbEntity
  8
0
  6
Continuous
 62
     7
370
    25
100
AcDbSpline
210
0.0
220
0.0
230
1.0
 70
     8
 71
     3
 72
    18
 73
    14
 74
     0
 42
0.000000001
 43
0.00000001
 40
0.0
 40
0.0
 40
0.0
 40
0.0
 40
0.0092852380145128
 40
0.1685058051879093
 40
0.3184653766548076
 40
0.4585163864557123
 40
0.5875627833523327
 40
0.7039960044915716
 40
0.8056277508378006
 40
0.8897209228118457
 40
0.9534024104081334
 40
0.9951821476560854
 40
1.0
 40
1.0
 40
1.0
 40
1.0
 10
377.8745717699716
 20
557.6806641434031
 30
0.0
 10
377.8897924736785
 20
557.6580625717446
 30
0.0
 10
378.1660133879565
 20
557.2478958075897
 30
0.0
 10
378.8376554960311
 20
556.583997517503
 30
0.0
 10
379.8423209354399
 20
555.7313096329481
 30
0.0
 10
380.8887536875465
 20
555.0766422874425
 30
0.0
 10
381.9124805313814
 20
554.5906724505783
 30
0.0
 10
382.8768371199456
 20
554.2570284610688
 30
0.0
 10
383.7399059059129
 20
554.0491869546078
 30
0.0
 10
384.4638026318894
 20
553.9370272121768
 30
0.0
 10
385.0180269238585
 20
553.8881929651005
 30
0.0
 10
385.3415686623006
 20
553.8747533964242
 30
0.0
 10
385.4780554348588
 20
553.8720339363159
 30
0.0
 10
385.4921671758918
 20
553.8717527638911
 30
0.0
  0
SPLINE
  5
122
330
1B
100
AcDbEntity
  8
0
  6
Continuous
 62
     7
370
    25
100
AcDbSpline
210
0.0
220
0.0
230
1.0
 70
     8
 71
     3
 72
    13
 73
     9
 74
     0
 42
0.000000001
 43
0.00000001
 40
0.0
 40
0.0
 40
0.0
 40
0.0
 40
0.1752544408187509
 40
0.3677213546598462
 40
0.5043267931841026
 40
0.6771597499776384
 40
0.8375286049151697
 40
1.0
 40
1.0
 40
1.0
 40
1.0
 10
686.9424342273912
 20
553.8717527638911
 30
0.0
 10
687.456173553301
 20
553.9044248102231
 30
0.0
 10
688.534108697101
 20
553.9729777614665
 30
0.0
 10
689.9700788854342
 20
554.36923226276
 30
0.0
 10
691.325558496755
 20
554.9481140165828
 30
0.0
 10
692.5062240891699
 20
555.6667761514133
 30
0.0
 10
693.640437741191
 20
556.5873893173798
 30
0.0
 10
694.2495929988391
 20
557.3142736875207
 30
0.0
 10
694.5561542300566
 20
557.6800828382507
 30
0.0
  0
SPLINE
  5
123
330
1B
100
AcDbEntity
  8
0
  6
Continuous
 62
     7
370
    25
100
AcDbSpline
210
0.0
220
0.0
230
1.0
 70
     8
 71
     3
 72
    42
 73
    38
 74
     0
 42
0.000000001
 43
0.00000001
 40
0.0
 40
0.0
 40
0.0
 40
0.0
 40
0.0434754359273579
 40
0.0942711705403892
 40
0.1427306356866899
 40
0.188934795777804
 40
0.2329621315143939
 40
0.2748886153361346
 40
0.3217045570846804
 40
0.3658199378825801
 40
0.4073454910793816
 40
0.4463869746684987
 40
0.4836902037212044
 40
0.5186237063933113
 40
0.5512831647152663
 40
0.5817589165466402
 40
0.6101359852910371
 40
0.6360407104717352
 40
0.660068629187859
 40
0.6822855921149904
 40
0.7027527154479237
 40
0.724029064584553
 40
0.7431796059852555
 40
0.7602732263250046
 40
0.7754337378145582
 40
0.7903715665203348
 40
0.8211970811784873
 40
0.8538815200017325
 40
0.8882789768612525
 40
0.9225078177476075
 40
0.9300019927248806
 40
0.9374285551950334
 40
0.9452744879322955
 40
0.9553956354299635
 40
0.9679308090280623
 40
0.9828216295370205
 40
0.9999999999999999
 40
0.9999999999999999
 40
0.9999999999999999
 40
0.9999999999999999
 10
354.3054687429675
 20
548.1457076457073
 30
0.0
 10
354.9570728683351
 20
542.0153159503078
 30
0.0
 10
356.3699967946181
 20
528.72231063204
 30
0.0
 10
358.5612779966945
 20
508.5786072517706
 30
0.0
 10
360.8321351295302
 20
488.0395176727971
 30
0.0
 10
363.0387131197889
 20
468.446273720238
 30
0.0
 10
365.1795930908731
 20
449.7688457463076
 30
0.0
 10
367.3691956747455
 20
430.9995941345726
 30
0.0
 10
369.6022567221764
 20
412.2141419228707
 30
0.0
 10
371.8739629616478
 20
393.4841352988772
 30
0.0
 10
374.0547888432036
 20
375.8549340520805
 30
0.0
 10
376.1562297615365
 20
359.192835383364
 30
0.0
 10
378.1775336701602
 20
343.4687036201603
 30
0.0
 10
380.1179103632894
 20
328.6545095313917
 30
0.0
 10
381.9640483463161
 20
314.8142372500826
 30
0.0
 10
383.7159414873253
 20
301.9102027895746
 30
0.0
 10
385.3647638181017
 20
289.9704425593563
 30
0.0
 10
386.9113791073674
 20
278.9512370266247
 30
0.0
 10
388.3567049949764
 20
268.8112084023941
 30
0.0
 10
389.7111038737214
 20
259.4478366421809
 30
0.0
 10
391.026019521592
 20
250.4834913232033
 30
0.0
 10
392.2935254670718
 20
241.9626802170635
 30
0.0
 10
393.505427390677
 20
233.928773809615
 30
0.0
 10
394.6003777683368
 20
226.7629781684399
 30
0.0
 10
395.6153405017067
 20
220.1983112500612
 30
0.0
 10
396.9374681026653
 20
211.7419794275348
 30
0.0
 10
398.6636293363933
 20
200.8898494702819
 30
0.0
 10
400.8602792374185
 20
187.4181509990405
 30
0.0
 10
403.1816154090274
 20
173.5643510189445
 30
0.0
 10
404.9631289348817
 20
163.238484698083
 30
0.0
 10
406.1276232450107
 20
156.6132975161873
 30
0.0
 10
406.6694320161933
 20
153.551297179734
 30
0.0
 10
407.2763836798813
 20
150.1448525322445
 30
0.0
 10
408.0085924055422
 20
146.0688425407207
 30
0.0
 10
408.9161089227585
 20
141.0706426950335
 30
0.0
 10
410.0023880595605
 20
135.1572869950211
 30
0.0
 10
410.7935189175748
 20
130.9347904439454
 30
0.0
 10
411.2173007016415
 20
128.6729432368705
 30
0.0
  0
SPLINE
  5
124
330
1B
100
AcDbEntity
  8
0
  6
Continuous
 62
     7
370
    25
100
AcDbSpline
210
0.0
220
0.0
230
1.0
 70
     8
 71
     3
 72
    40
 73
    36
 74
     0
 42
0.000000001
 43
0.00000001
 40
0.0
 40
0.0
 40
0.0
 40
0.0
 40
0.0187487545629345
 40
0.0349131073605919
 40
0.0484098492774808
 40
0.0593632696031537
 40
0.0697188318711177
 40
0.1095686653274376
 40
0.1438358280081292
 40
0.1765035517014952
 40
0.1951356445467419
 40
0.2131292141134231
 40
0.2304990160737487
 40
0.249376971746519
 40
0.2710557253986006
 40
0.2956428646498578
 40
0.3164521471464602
 40
0.3390882886673299
 40
0.3636164377838993
 40
0.3901069210725448
 40
0.4186353172670863
 40
0.4487161847877291
 40
0.4809225293217614
 40
0.5153410655288442
 40
0.5520635708088635
 40
0.5919210757869907
 40
0.6343751731320061
 40
0.6795389779628388
 40
0.7275310496815929
 40
0.7784753641375902
 40
0.8206583072437492
 40
0.8648086172469805
 40
0.910993363148743
 40
0.9592816091914808
 40
1.0
 40
1.0
 40
1.0
 40
1.0
 10
661.2173007016416
 20
128.6729432368705
 30
0.0
 10
661.6796419970685
 20
131.1416581934652
 30
0.0
 10
662.5405936528326
 20
135.738790767417
 30
0.0
 10
663.7180484118434
 20
142.1623640328684
 30
0.0
 10
664.697990983167
 20
147.5760374022998
 30
0.0
 10
665.5321981050091
 20
152.2381225899661
 30
0.0
 10
666.9889546302891
 20
160.4579646505122
 30
0.0
 10
668.9713248570625
 20
171.8988729645585
 30
0.0
 10
671.4215833742647
 20
186.4951084950987
 30
0.0
 10
673.3440650583814
 20
198.2638574954319
 30
0.0
 10
674.8766628580005
 20
207.8360244029286
 30
0.0
 10
676.0576611626958
 20
215.3164688701798
 30
0.0
 10
677.2314247089924
 20
222.8503942605275
 30
0.0
 10
678.471482713646
 20
230.9171050071668
 30
0.0
 10
679.849108271858
 20
240.0101721284892
 30
0.0
 10
681.2479783376064
 20
249.3933908306906
 30
0.0
 10
682.6477843709387
 20
258.9274192095851
 30
0.0
 10
684.0286328578898
 20
268.4671875281167
 30
0.0
 10
685.5046005227575
 20
278.8183767536181
 30
0.0
 10
687.0756833901806
 20
290.0116092585508
 30
0.0
 10
688.7308608889645
 20
301.9996437730718
 30
0.0
 10
690.4692259521629
 20
314.8054240651257
 30
0.0
 10
692.289917112734
 20
328.4531714593749
 30
0.0
 10
694.202333446645
 20
343.0483414702322
 30
0.0
 10
696.2198131161197
 20
358.7325888681547
 30
0.0
 10
698.3431492851298
 20
375.558971668957
 30
0.0
 10
700.5730829950389
 20
393.5829683392806
 30
0.0
 10
702.8980859809066
 20
412.7587441894484
 30
0.0
 10
705.3181439537143
 20
433.1335759684641
 30
0.0
 10
707.6385527541935
 20
453.0824322691394
 30
0.0
 10
709.8528764814932
 20
472.4816185490104
 30
0.0
 10
711.9541336825644
 20
491.2011148866959
 30
0.0
 10
714.113019475227
 20
510.7734165057577
 30
0.0
 10
716.1853979374852
 20
529.8519786520394
 30
0.0
 10
717.5190440986383
 20
542.4024215724451
 30
0.0
 10
718.1291550691367
 20
548.143946673625
 30
0.0
  0
SPLINE
  5
125
330
1B
100
AcDbEntity
  8
0
  6
Continuous
 62
     7
370
    25
100
AcDbSpline
210
0.0
220
0.0
230
1.0
 70
     8
 71
     3
 72
    26
 73
    22
 74
     0
 42
0.000000001
 43
0.00000001
 40
0.0
 40
0.0
 40
0.0
 40
0.0
 40
0.0365612087958255
 40
0.106296078058787
 40
0.1761716425099806
 40
0.2462613776270021
 40
0.3167823695728124
 40
0.3881750217582867
 40
0.4615842173006672
 40
0.5415938918890666
 40
0.5760696865678253
 40
0.6048769875667769
 40
0.6314510619000722
 40
0.6646894474294005
 40
0.7056531944051403
 40
0.7535736908062226
 40
0.8038144984122256
 40
0.8593095229575043
 40
0.9181983856530586
 40
0.979104280104527
 40
1.0
 40
1.0
 40
1.0
 40
1.0
 10
374.7173007016416
 20
606.2503981415279
 30
0.0
 10
374.3910059944801
 20
606.2502354978014
 30
0.0
 10
373.4423544371339
 20
606.2497626362411
 30
0.0
 10
371.8858798000411
 20
606.2444904151944
 30
0.0
 10
370.1149223578189
 20
606.2327645960983
 30
0.0
 10
368.4681280559261
 20
606.215454362935
 30
0.0
 10
366.9857210896237
 20
606.1928492270225
 30
0.0
 10
365.6969768349236
 20
606.1651927524847
 30
0.0
 10
364.5913273222179
 20
606.1300947286624
 30
0.0
 10
363.8665414091707
 20
606.09568439076
 30
0.0
 10
363.2280902305317
 20
606.0440868974944
 30
0.0
 10
362.6804503695584
 20
605.979443545023
 30
0.0
 10
361.9973246183177
 20
605.8610063146809
 30
0.0
 10
361.1558151338296
 20
605.6513813610376
 30
0.0
 10
360.1388437264351
 20
605.2908363821265
 30
0.0
 10
359.0268315577504
 20
604.7423333063571
 30
0.0
 10
357.8863708226999
 20
603.9792161287346
 30
0.0
 10
356.7859027266833
 20
602.9975972334652
 30
0.0
 10
355.802998801374
 20
601.7790376191149
 30
0.0
 10
355.129373656561
 20
600.7050782708384
 30
0.0
 10
354.8831166211289
 20
600.0173173555303
 30
0.0
 10
354.8202117741309
 20
599.8416330544799
 30
0.0
  0
SPLINE
  5
126
330
1B
100
AcDbEntity
  8
0
  6
Continuous
 62
     7
370
    25
100
AcDbSpline
210
0.0
220
0.0
230
1.0
 70
     8
 71
     3
 72
    27
 73
    23
 74
     0
 42
0.000000001
 43
0.00000001
 40
0.0
 40
0.0
 40
0.0
 40
0.0
 40
0.034492630179662
 40
0.0909840099025904
 40
0.1445038154106558
 40
0.1950038647313813
 40
0.2422865059054413
 40
0.2859553970111451
 40
0.3252093356647175
 40
0.3584953959176085
 40
0.3854098749460007
 40
0.4100294809110217
 40
0.4378633408345578
 40
0.4748515536688943
 40
0.5391794601615448
 40
0.6115461918105941
 40
0.6806954692557287
 40
0.7534810552195634
 40
0.8247281633609786
 40
0.8953135548245164
 40
0.9655980827299766
 40
0.9999999999999999
 40
0.9999999999999999
 40
0.9999999999999999
 40
0.9999999999999999
 10
717.5598227903932
 20
599.9723033993021
 30
0.0
 10
717.4430326456303
 20
600.2557234198777
 30
0.0
 10
717.1349658025886
 20
601.0033234093341
 30
0.0
 10
716.4147645670754
 20
602.0755028654247
 30
0.0
 10
715.4827966354874
 20
603.1553554632969
 30
0.0
 10
714.4650083482488
 20
604.037048854883
 30
0.0
 10
713.4180134511496
 20
604.731345645256
 30
0.0
 10
712.3865759513195
 20
605.2482880007863
 30
0.0
 10
711.4278923163052
 20
605.6041224342573
 30
0.0
 10
710.5995865731621
 20
605.825506750427
 30
0.0
 10
709.9300699244845
 20
605.9521421801788
 30
0.0
 10
709.4047356008142
 20
606.0226448407112
 30
0.0
 10
708.9533253397743
 20
606.0659475474667
 30
0.0
 10
708.4254760096861
 20
606.1021811935597
 30
0.0
 10
707.725231581371
 20
606.134308279715
 30
0.0
 10
706.7137963852756
 20
606.1656136910366
 30
0.0
 10
705.4359097132254
 20
606.1930949492902
 30
0.0
 10
703.952694069661
 20
606.2156697434112
 30
0.0
 10
702.2789978894416
 20
606.233127817334
 30
0.0
 10
700.4939630280415
 20
606.2447659901692
 30
0.0
 10
698.952037334472
 20
606.2498196935135
 30
0.0
 10
698.0226987000508
 20
606.2502550690209
 30
0.0
 10
697.7173007016414
 20
606.2503981415279
 30
0.0
  0
LWPOLYLINE
  5
128
330
1B
100
AcDbEntity
  8
0
  6
Continuous
 62
     7
370
    25
100
AcDbPolyline
 90
       71
 70
   128
 43
0.0
 10
359.3301619287
 20
558.3645627911
 10
359.5205458288
 20
558.2953635312
 10
360.0660520953
 20
558.226308291
 10
360.9655843781
 20
558.1575358567
 10
362.2173348115
 20
558.0891844459
 10
363.8187876471
 20
558.0213914304
 10
365.7667243101
 20
557.9542930595
 10
368.0572298678
 20
557.8880241864
 10
370.6857008982
 20
557.8227179972
 10
373.6468547415
 20
557.7585057433
 10
376.934740117
 20
557.6955164775
 10
380.5427490844
 20
557.6338767946
 10
384.4636303237
 20
557.5737105771
 10
388.6895037095
 20
557.5151387462
 10
393.2118761475
 20
557.4582790185
 10
398.0216586447
 20
557.4032456698
 10
403.1091845757
 20
557.3501493053
 10
408.4642291105
 20
557.2990966373
 10
414.0760297648
 20
557.2501902706
 10
419.9333080295
 20
557.2035284965
 10
426.0242920387
 20
557.159205095
 10
432.3367402283
 20
557.1173091466
 10
438.8579659389
 20
557.0779248532
 10
445.5748629133
 20
557.0411313686
 10
452.4739316375
 20
557.0070026399
 10
459.5413064712
 20
556.9756072585
 10
466.7627835155
 20
556.9470083222
 10
474.1238491589
 20
556.9212633088
 10
481.6097092473
 20
556.8984239602
 10
489.2053188164
 20
556.8785361786
 10
496.8954123293
 20
556.861639934
 10
504.6645343567
 20
556.8477691844
 10
512.4970706389
 20
556.836951807
 10
520.3772794675
 20
556.8292095422
 10
528.2893233223
 20
556.8245579505
 10
536.2173007016
 20
556.8230063805
 10
544.145278081
 20
556.8245579505
 10
552.0573219358
 20
556.8292095422
 10
559.9375307644
 20
556.836951807
 10
567.7700670466
 20
556.8477691844
 10
575.539189074
 20
556.861639934
 10
583.2292825869
 20
556.8785361786
 10
590.824892156
 20
556.8984239602
 10
598.3107522444
 20
556.9212633088
 10
605.6718178878
 20
556.9470083222
 10
612.8932949321
 20
556.9756072585
 10
619.9606697658
 20
557.0070026399
 10
626.8597384899
 20
557.0411313686
 10
633.5766354644
 20
557.0779248532
 10
640.097861175
 20
557.1173091466
 10
646.4103093646
 20
557.159205095
 10
652.5012933738
 20
557.2035284965
 10
658.3585716385
 20
557.2501902706
 10
663.9703722928
 20
557.2990966373
 10
669.3254168276
 20
557.3501493053
 10
674.4129427586
 20
557.4032456698
 10
679.2227252558
 20
557.4582790185
 10
683.7450976938
 20
557.5151387462
 10
687.9709710796
 20
557.5737105771
 10
691.8918523189
 20
557.6338767946
 10
695.4998612863
 20
557.6955164775
 10
698.7877466618
 20
557.7585057433
 10
701.748900505
 20
557.8227179972
 10
704.3773715355
 20
557.8880241864
 10
706.6678770932
 20
557.9542930595
 10
708.6158137562
 20
558.0213914304
 10
710.2172665917
 20
558.0891844459
 10
711.4690170252
 20
558.1575358567
 10
712.368549308
 20
558.226308291
 10
712.9140555745
 20
558.2953635312
 10
713.1044394746
 20
558.3645627911
  0
SPLINE
  5
137
330
1B
100
AcDbEntity
  8
0
  6
Continuous
 62
     7
370
    25
100
AcDbSpline
210
0.0
220
0.0
230
1.0
 70
    24
 71
     3
 72
   111
 73
   107
 74
     0
 42
0.000000001
 43
0.00000001
 40
0.0
 40
0.0
 40
0.0
 40
0.0
 40
0.00390625
 40
0.00390625
 40
0.0078125000000001
 40
0.0156250000000001
 40
0.0156250000000001
 40
0.0312500000000002
 40
0.0312500000000002
 40
0.0468750000000003
 40
0.0468750000000003
 40
0.0625000000000004
 40
0.0625000000000004
 40
0.0937500000000005
 40
0.0937500000000005
 40
0.1250000000000006
 40
0.1250000000000006
 40
0.1406250000000007
 40
0.1406250000000007
 40
0.1484375000000007
 40
0.1484375000000007
 40
0.1562500000000008
 40
0.1562500000000008
 40
0.1875000000000012
 40
0.1875000000000012
 40
0.2187500000000016
 40
0.2187500000000016
 40
0.2500000000000019
 40
0.2500000000000019
 40
0.2578125000000021
 40
0.2578125000000021
 40
0.2656250000000022
 40
0.2656250000000022
 40
0.2812500000000024
 40
0.2812500000000024
 40
0.312500000000003
 40
0.312500000000003
 40
0.3437500000000036
 40
0.3437500000000036
 40
0.3593750000000037
 40
0.3593750000000037
 40
0.3750000000000039
 40
0.3750000000000039
 40
0.4062500000000045
 40
0.4062500000000045
 40
0.4375000000000051
 40
0.4375000000000051
 40
0.4687500000000059
 40
0.4687500000000059
 40
0.4765625000000064
 40
0.4765625000000064
 40
0.4843750000000069
 40
0.4843750000000069
 40
0.5000000000000073
 40
0.5000000000000073
 40
0.5312500000000082
 40
0.5312500000000082
 40
0.562500000000009
 40
0.562500000000009
 40
0.5781250000000092
 40
0.5781250000000092
 40
0.5859375000000089
 40
0.5859375000000089
 40
0.5937500000000087
 40
0.5937500000000087
 40
0.6250000000000089
 40
0.6250000000000089
 40
0.6562500000000091
 40
0.6562500000000091
 40
0.6875000000000093
 40
0.6875000000000093
 40
0.6953125000000092
 40
0.6953125000000092
 40
0.7031250000000091
 40
0.7031250000000091
 40
0.7187500000000087
 40
0.7187500000000087
 40
0.7500000000000079
 40
0.7500000000000079
 40
0.7812500000000072
 40
0.7812500000000072
 40
0.7968750000000068
 40
0.7968750000000068
 40
0.8125000000000064
 40
0.8125000000000064
 40
0.8437500000000053
 40
0.8437500000000053
 40
0.8750000000000042
 40
0.8750000000000042
 40
0.8906250000000037
 40
0.8906250000000037
 40
0.8984375000000034
 40
0.8984375000000034
 40
0.9062500000000032
 40
0.9062500000000032
 40
0.9375000000000022
 40
0.9375000000000022
 40
0.9687500000000012
 40
0.9687500000000012
 40
0.9843750000000007
 40
0.9843750000000007
 40
0.9921875000000004
 40
0.9921875000000004
 40
0.9960937500000003
 40
0.9960937500000003
 40
1.0
 40
1.0
 40
1.0
 40
1.0
 10
359.2687961818916
 20
553.6729432368704
 30
0.0
 10
359.2686407754283
 20
553.6729432368705
 30
0.0
 10
359.2697207136279
 20
553.6729432368704
 30
0.0
 10
359.2836150568128
 20
553.6729432368704
 30
0.0
 10
359.3180575382767
 20
553.6729432368705
 30
0.0
 10
359.3931633305681
 20
553.6729432368704
 30
0.0
 10
359.5973660729613
 20
553.6729432368705
 30
0.0
 10
359.8054428076555
 20
553.6729432368703
 30
0.0
 10
360.3654486522107
 20
553.6729432368703
 30
0.0
 10
360.7176845879795
 20
553.6729432368702
 30
0.0
 10
361.5661647721298
 20
553.67294323687
 30
0.0
 10
362.0604312837846
 20
553.6729432368707
 30
0.0
 10
363.7493562073145
 20
553.6729432368704
 30
0.0
 10
365.1488462093536
 20
553.6729432368704
 30
0.0
 10
368.4825095987718
 20
553.6729432368704
 30
0.0
 10
370.417089934316
 20
553.6729432368705
 30
0.0
 10
373.7268406228809
 20
553.6729432368707
 30
0.0
 10
374.897963550224
 20
553.6729432368707
 30
0.0
 10
376.7576337329224
 20
553.6729432368708
 30
0.0
 10
377.3947011768566
 20
553.6729432368708
 30
0.0
 10
378.7035458531358
 20
553.6729432368708
 30
0.0
 10
379.3762601293326
 20
553.6729432368701
 30
0.0
 10
382.8110591362941
 20
553.6729432368702
 30
0.0
 10
385.7916884900773
 20
553.6729432368704
 30
0.0
 10
392.2069496731201
 20
553.6729432368705
 30
0.0
 10
395.6403983967768
 20
553.6729432368705
 30
0.0
 10
402.955566556096
 20
553.6729432368707
 30
0.0
 10
406.8375954784818
 20
553.6729432368705
 30
0.0
 10
411.980779362896
 20
553.6729432368705
 30
0.0
 10
413.0239276534402
 20
553.6729432368705
 30
0.0
 10
415.139467887916
 20
553.6729432368705
 30
0.0
 10
416.2117966166247
 20
553.6729432368705
 30
0.0
 10
419.4545570619046
 20
553.6729432368705
 30
0.0
 10
421.656643095719
 20
553.6729432368707
 30
0.0
 10
428.3813369879207
 20
553.6729432368707
 30
0.0
 10
433.0220457343692
 20
553.6729432368705
 30
0.0
 10
442.6172978412915
 20
553.6729432368705
 30
0.0
 10
447.5711141908351
 20
553.6729432368704
 30
0.0
 10
455.2373234439351
 20
553.6729432368705
 30
0.0
 10
457.8320924650585
 20
553.6729432368704
 30
0.0
 10
463.1020604906961
 20
553.6729432368705
 30
0.0
 10
465.7835453300168
 20
553.6729432368707
 30
0.0
 10
473.8670076881251
 20
553.6729432368707
 30
0.0
 10
479.3277496147168
 20
553.6729432368707
 30
0.0
 10
490.3874647700061
 20
553.6729432368709
 30
0.0
 10
495.9864442605568
 20
553.6729432368704
 30
0.0
 10
507.3242847391826
 20
553.6729432368703
 30
0.0
 10
513.0631155185257
 20
553.6729432368701
 30
0.0
 10
520.3258299536118
 20
553.67294323687
 30
0.0
 10
521.7847812499427
 20
553.6729432368707
 30
0.0
 10
524.701650059078
 20
553.6729432368709
 30
0.0
 10
526.1584537881898
 20
553.6729432368705
 30
0.0
 10
530.5240198711958
 20
553.6729432368704
 30
0.0
 10
533.4279422023423
 20
553.6729432368702
 30
0.0
 10
542.1205329383464
 20
553.6729432368703
 30
0.0
 10
547.8901102028551
 20
553.6729432368702
 30
0.0
 10
559.3793226936515
 20
553.6729432368703
 30
0.0
 10
565.0989526998176
 20
553.6729432368701
 30
0.0
 10
573.6399096588613
 20
553.6729432368702
 30
0.0
 10
576.4804581706547
 20
553.6729432368702
 30
0.0
 10
580.7315120392019
 20
553.6729432368703
 30
0.0
 10
582.1482219721235
 20
553.6729432368704
 30
0.0
 10
584.963238341222
 20
553.6729432368704
 30
0.0
 10
586.3631898196489
 20
553.6729432368704
 30
0.0
 10
593.325592564467
 20
553.6729432368705
 30
0.0
 10
598.7764315934375
 20
553.6729432368701
 30
0.0
 10
609.4434105780005
 20
553.6729432368703
 30
0.0
 10
614.6592578851471
 20
553.6729432368701
 30
0.0
 10
624.8573777938284
 20
553.6729432368703
 30
0.0
 10
629.8397073001663
 20
553.6729432368707
 30
0.0
 10
635.915427021692
 20
553.6729432368705
 30
0.0
 10
637.1212438917112
 20
553.6729432368707
 30
0.0
 10
639.5045446077745
 20
553.6729432368707
 30
0.0
 10
640.6835000475307
 20
553.6729432368707
 30
0.0
 10
644.1828228687395
 20
553.6729432368707
 30
0.0
 10
646.4656858657188
 20
553.6729432368707
 30
0.0
 10
653.1670823864544
 20
553.6729432368711
 30
0.0
 10
657.4390216404249
 20
553.6729432368703
 30
0.0
 10
665.5921519211342
 20
553.6729432368702
 30
0.0
 10
669.4722786934949
 20
553.6729432368708
 30
0.0
 10
674.9943573806561
 20
553.6729432368708
 30
0.0
 10
676.7862947237991
 20
553.6729432368703
 30
0.0
 10
680.2643866744423
 20
553.6729432368704
 30
0.0
 10
681.937950534537
 20
553.6729432368704
 30
0.0
 10
686.7654561399482
 20
553.6729432368708
 30
0.0
 10
689.725656655961
 20
553.6729432368704
 30
0.0
 10
695.1441960987977
 20
553.6729432368705
 30
0.0
 10
697.6029436612146
 20
553.6729432368701
 30
0.0
 10
700.9109308178739
 20
553.6729432368702
 30
0.0
 10
701.9499150650902
 20
553.6729432368703
 30
0.0
 10
703.4114596376868
 20
553.6729432368703
 30
0.0
 10
703.8825010283257
 20
553.6729432368701
 30
0.0
 10
704.7920402933321
 20
553.6729432368702
 30
0.0
 10
705.2309951309152
 20
553.6729432368701
 30
0.0
 10
707.3380285775802
 20
553.6729432368702
 30
0.0
 10
708.735397101533
 20
553.6729432368704
 30
0.0
 10
710.9678655575864
 20
553.6729432368705
 30
0.0
 10
711.8020788384954
 20
553.6729432368707
 30
0.0
 10
712.6323718319604
 20
553.6729432368707
 30
0.0
 10
712.8388325728098
 20
553.6729432368709
 30
0.0
 10
713.0418294851473
 20
553.6729432368707
 30
0.0
 10
713.0917012446503
 20
553.6729432368704
 30
0.0
 10
713.13955196276
 20
553.6729432368703
 30
0.0
 10
713.1510085674644
 20
553.6729432368701
 30
0.0
 10
713.1648799741981
 20
553.6729432368703
 30
0.0
 10
713.1659605938057
 20
553.6729432368705
 30
0.0
 10
713.1658052213916
 20
553.6729432368704
 30
0.0
  0
SPLINE
  5
139
330
1B
100
AcDbEntity
  8
0
  6
Continuous
 62
     7
370
    25
100
AcDbSpline
210
0.0
220
0.0
230
1.0
 70
     8
 71
     3
 72
   111
 73
   107
 74
     0
 42
0.000000001
 43
0.00000001
 40
0.0
 40
0.0
 40
0.0
 40
0.0
 40
0.0039062499999999
 40
0.0039062499999999
 40
0.0078124999999997
 40
0.0156249999999994
 40
0.0156249999999994
 40
0.0312499999999988
 40
0.0312499999999988
 40
0.0624999999999974
 40
0.0624999999999974
 40
0.093749999999996
 40
0.093749999999996
 40
0.1015624999999957
 40
0.1015624999999957
 40
0.1093749999999953
 40
0.1093749999999953
 40
0.1249999999999945
 40
0.1249999999999945
 40
0.1562499999999932
 40
0.1562499999999932
 40
0.1874999999999919
 40
0.1874999999999919
 40
0.2031249999999914
 40
0.2031249999999914
 40
0.2187499999999908
 40
0.2187499999999908
 40
0.2499999999999898
 40
0.2499999999999898
 40
0.2812499999999888
 40
0.2812499999999888
 40
0.2968749999999883
 40
0.2968749999999883
 40
0.3046874999999881
 40
0.3046874999999881
 40
0.3124999999999878
 40
0.3124999999999878
 40
0.3437499999999877
 40
0.3437499999999877
 40
0.3749999999999875
 40
0.3749999999999875
 40
0.4062499999999873
 40
0.4062499999999873
 40
0.4140624999999876
 40
0.4140624999999876
 40
0.4218749999999878
 40
0.4218749999999878
 40
0.4374999999999883
 40
0.4374999999999883
 40
0.4687499999999893
 40
0.4687499999999893
 40
0.4999999999999905
 40
0.4999999999999905
 40
0.515624999999991
 40
0.515624999999991
 40
0.5234374999999913
 40
0.5234374999999913
 40
0.5312499999999916
 40
0.5312499999999916
 40
0.562499999999992
 40
0.562499999999992
 40
0.5937499999999926
 40
0.5937499999999926
 40
0.624999999999993
 40
0.624999999999993
 40
0.6406249999999932
 40
0.6406249999999932
 40
0.6562499999999934
 40
0.6562499999999934
 40
0.6874999999999938
 40
0.6874999999999938
 40
0.7187499999999942
 40
0.7187499999999942
 40
0.7343749999999946
 40
0.7343749999999946
 40
0.7421874999999947
 40
0.7421874999999947
 40
0.7499999999999949
 40
0.7499999999999949
 40
0.7812499999999953
 40
0.7812499999999953
 40
0.8124999999999958
 40
0.8124999999999958
 40
0.8437499999999963
 40
0.8437499999999963
 40
0.8515624999999964
 40
0.8515624999999964
 40
0.8593749999999967
 40
0.8593749999999967
 40
0.8749999999999971
 40
0.8749999999999971
 40
0.9062499999999978
 40
0.9062499999999978
 40
0.9374999999999984
 40
0.9374999999999984
 40
0.9531249999999989
 40
0.9531249999999989
 40
0.9687499999999992
 40
0.9687499999999992
 40
0.9843749999999996
 40
0.9843749999999996
 40
0.9921874999999998
 40
0.9921874999999998
 40
0.9960937499999999
 40
0.9960937499999999
 40
1.0
 40
1.0
 40
1.0
 40
1.0
 10
718.1384275007265
 20
548.1504238094703
 30
0.0
 10
718.1386021773508
 20
548.150565988911
 30
0.0
 10
718.1376793668263
 20
548.1530766541371
 30
0.0
 10
718.1236999222946
 20
548.1568449264511
 30
0.0
 10
718.0887836161141
 20
548.1625102297663
 30
0.0
 10
718.0122884078351
 20
548.1682151777682
 30
0.0
 10
717.8044052333394
 20
548.1796809961495
 30
0.0
 10
717.5926730883648
 20
548.187399385903
 30
0.0
 10
716.7405895228397
 20
548.2108064984213
 30
0.0
 10
715.883897396639
 20
548.2267865053072
 30
0.0
 10
713.590548072544
 20
548.2593990720101
 30
0.0
 10
712.1547728031464
 20
548.2759301062333
 30
0.0
 10
709.9894732263592
 20
548.2969678041648
 30
0.0
 10
709.5383819513136
 20
548.3011882787962
 30
0.0
 10
708.60366278919
 20
548.3096261162956
 30
0.0
 10
708.1195695980932
 20
548.3138480459138
 30
0.0
 10
706.6174981284057
 20
548.326525604825
 30
0.0
 10
705.5496688231983
 20
548.3350109030715
 30
0.0
 10
702.1497355166273
 20
548.3603234352112
 30
0.0
 10
699.6224905418952
 20
548.3770500064519
 30
0.0
 10
694.0526725425675
 20
548.4103512957931
 30
0.0
 10
691.0096932611743
 20
548.4270087506771
 30
0.0
 10
686.0470717361962
 20
548.4516659216705
 30
0.0
 10
684.3266409618113
 20
548.4598138828886
 30
0.0
 10
680.75107930339
 20
548.4759849259497
 30
0.0
 10
678.9089531616052
 20
548.4839488906002
 30
0.0
 10
673.2320776671704
 20
548.5074728994588
 30
0.0
 10
669.2431065194739
 20
548.522761395435
 30
0.0
 10
660.8612424253198
 20
548.5521799690526
 30
0.0
 10
656.4694122963771
 20
548.5662284047622
 30
0.0
 10
649.5798440906286
 20
548.5864134815384
 30
0.0
 10
647.2328654785246
 20
548.5929936318527
 30
0.0
 10
643.6352522937395
 20
548.6026513644525
 30
0.0
 10
642.4231804108765
 20
548.6058351680081
 30
0.0
 10
639.9729339205554
 20
548.612133200433
 30
0.0
 10
638.7332471933646
 20
548.6152535489034
 30
0.0
 10
632.4868648688549
 20
548.6305450667413
 30
0.0
 10
627.364585323175
 20
548.6417946917558
 30
0.0
 10
616.8799702391192
 20
548.662507154695
 30
0.0
 10
611.5175771884832
 20
548.6719898039687
 30
0.0
 10
600.550956600446
 20
548.6891852555566
 30
0.0
 10
594.9470206255838
 20
548.6967851850278
 30
0.0
 10
587.7890606154715
 20
548.7050458848815
 30
0.0
 10
586.34978790023
 20
548.7066358833505
 30
0.0
 10
583.4557052300161
 20
548.7096910285513
 30
0.0
 10
581.9991938784203
 20
548.7111576744678
 30
0.0
 10
577.6286678611286
 20
548.7153480311754
 30
0.0
 10
574.7082889119071
 20
548.7178700853777
 30
0.0
 10
565.9273048386864
 20
548.724630118542
 30
0.0
 10
560.0469430953871
 20
548.7280031910492
 30
0.0
 10
548.2348666121127
 20
548.732524907259
 30
0.0
 10
542.3031570577805
 20
548.7336736287515
 30
0.0
 10
533.3663073462671
 20
548.7336980286856
 30
0.0
 10
530.3807880786649
 20
548.7334223431894
 30
0.0
 10
525.8925563567916
 20
548.7325777500669
 30
0.0
 10
524.3948190232672
 20
548.7322243336457
 30
0.0
 10
521.3959919123284
 20
548.7313723144117
 30
0.0
 10
519.8959803928776
 20
548.7308737858513
 30
0.0
 10
512.4289267245931
 20
548.7280328505353
 30
0.0
 10
506.5286280421261
 20
548.7246403647184
 30
0.0
 10
494.871736281456
 20
548.7156786186679
 30
0.0
 10
489.1151769381894
 20
548.7101752494721
 30
0.0
 10
477.744187592442
 20
548.6971091034599
 30
0.0
 10
472.1297509267307
 20
548.6895430917597
 30
0.0
 10
463.8187400022973
 20
548.6765529607121
 30
0.0
 10
461.0616798052915
 20
548.6719547545496
 30
0.0
 10
455.6430463821286
 20
548.6623919684577
 30
0.0
 10
452.9750786756235
 20
548.657408655177
 30
0.0
 10
445.092613969961
 20
548.6418444178369
 30
0.0
 10
439.999073556038
 20
548.6306508423588
 30
0.0
 10
430.133139550805
 20
548.6065377857012
 30
0.0
 10
425.3614775660613
 20
548.593723615674
 30
0.0
 10
418.4470449620704
 20
548.5735157325378
 30
0.0
 10
416.1828292234358
 20
548.5666015248198
 30
0.0
 10
412.848580012862
 20
548.5559435894768
 30
0.0
 10
411.7460002196451
 20
548.552337988613
 30
0.0
 10
409.5706252186488
 20
548.5450571784885
 30
0.0
 10
408.4979753340651
 20
548.5413827562946
 30
0.0
 10
403.20933823384
 20
548.5228366487715
 30
0.0
 10
399.2175104011464
 20
548.5075260328981
 30
0.0
 10
391.695533991839
 20
548.4763740848622
 30
0.0
 10
388.1650728486489
 20
548.4604541011993
 30
0.0
 10
381.5685832018994
 20
548.4277645583993
 30
0.0
 10
378.5037382338967
 20
548.41104718462
 30
0.0
 10
374.9719255368161
 20
548.3899708095261
 30
0.0
 10
374.2801677073826
 20
548.3857384963158
 30
0.0
 10
372.9342559997862
 20
548.3772893942596
 30
0.0
 10
372.2791517189358
 20
548.3730670871306
 30
0.0
 10
370.3668438783243
 20
548.3604033519928
 30
0.0
 10
369.1625920591613
 20
548.3519650311127
 30
0.0
 10
365.759240990433
 20
548.3266362117117
 30
0.0
 10
363.7699628081897
 20
548.3097959357052
 30
0.0
 10
360.3421203244174
 20
548.2765779586734
 30
0.0
 10
358.9031476424528
 20
548.2601282882825
 30
0.0
 10
357.1665903732087
 20
548.2355968806733
 30
0.0
 10
356.6583816348134
 20
548.2274487378166
 30
0.0
 10
355.7859634664286
 20
548.2113084940912
 30
0.0
 10
355.4233945876498
 20
548.2033309180151
 30
0.0
 10
354.8467240080153
 20
548.1875714328191
 30
0.0
 10
354.632479050955
 20
548.1797851438898
 30
0.0
 10
354.4228703990843
 20
548.1682566718696
 30
0.0
 10
354.3715900158026
 20
548.164437847518
 30
0.0
 10
354.3226045903422
 20
548.1587438510321
 30
0.0
 10
354.3109327772269
 20
548.1568515617714
 30
0.0
 10
354.2969209192206
 20
548.1530781499346
 30
0.0
 10
354.2959991702555
 20
548.1505660342297
 30
0.0
 10
354.2961739025566
 20
548.1504238094701
 30
0.0
  0
SPLINE
  5
13B
330
1B
100
AcDbEntity
  8
0
  6
Continuous
 62
     7
370
    25
100
AcDbSpline
210
0.0
220
0.0
230
1.0
 70
    24
 71
     3
 72
    25
 73
    21
 74
     0
 42
0.000000001
 43
0.00000001
 40
0.4490684854056353
 40
0.4490684854056353
 40
0.4490684854056353
 40
0.4490684854056353
 40
0.4665885341974292
 40
0.4841085830166617
 40
0.501628631835894
 40
0.5191486806551264
 40
0.5366687294743586
 40
0.554188778293591
 40
0.5717088271128234
 40
0.5892288759320559
 40
0.5892288759320559
 40
0.5892288759320559
 40
0.6067489247512883
 40
0.6242689735705207
 40
0.6417890223897531
 40
0.6593090712089853
 40
0.6768291200282177
 40
0.6943491688474501
 40
0.7118692176666825
 40
0.7293892664557696
 40
0.7293892664557696
 40
0.7293892664557696
 40
0.7293892664557696
 10
411.2173007016415
 20
128.6729432368705
 30
0.0
 10
411.2173007016415
 20
128.6729432368705
 30
0.0
 10
413.2037458749182
 20
128.6729432368705
 30
0.0
 10
421.1658000887342
 20
128.6729432368705
 30
0.0
 10
433.3434377138725
 20
128.6729432368705
 30
0.0
 10
449.0904834800482
 20
128.6729432368705
 30
0.0
 10
467.8018378873802
 20
128.6729432368705
 30
0.0
 10
488.9206242686944
 20
128.6729432368705
 30
0.0
 10
511.8899659568168
 20
128.6729432368705
 30
0.0
 10
528.0360698861502
 20
128.6729432368705
 30
0.0
 10
536.2173007016415
 20
128.6729432368705
 30
0.0
 10
544.3985315171328
 20
128.6729432368705
 30
0.0
 10
560.5446354464663
 20
128.6729432368705
 30
0.0
 10
583.5139771345887
 20
128.6729432368705
 30
0.0
 10
604.632763515903
 20
128.6729432368705
 30
0.0
 10
623.344117923235
 20
128.6729432368705
 30
0.0
 10
639.0911636894108
 20
128.6729432368705
 30
0.0
 10
651.2688013145489
 20
128.6729432368705
 30
0.0
 10
659.2308555283648
 20
128.6729432368705
 30
0.0
 10
661.2173007016416
 20
128.6729432368705
 30
0.0
 10
661.2173007016416
 20
128.6729432368705
 30
0.0
  0
LWPOLYLINE
  5
146
330
1B
100
AcDbEntity
  8
0
  6
Continuous
 62
     7
370
    25
100
AcDbPolyline
 90
       11
 70
   128
 43
0.0
 10
708.7173007016
 20
959.6729432369
 10
709.4994730268
 20
959.4882683458
 10
710.2623856735
 20
958.9387909813
 10
710.9872532003
 20
958.0380410997
 10
711.6562269631
 20
956.8081981525
 10
712.2528346076
 20
955.2795449547
 10
712.7623856735
 20
953.4897220213
 10
713.1723333226
 20
951.482800733
 10
713.4725832831
 20
949.3081981525
 10
713.6557424046
 20
947.0194602125
 10
713.7173007016
 20
944.6729432369
  0
LWPOLYLINE
  5
148
330
1B
100
AcDbEntity
  8
0
  6
Continuous
 62
     7
370
    25
100
AcDbPolyline
 90
       11
 70
   128
 43
0.0
 10
363.7173007016
 20
959.6729432369
 10
362.9351283764
 20
959.4882683458
 10
362.1722157298
 20
958.9387909813
 10
361.4473482029
 20
958.0380410997
 10
360.7783744402
 20
956.8081981525
 10
360.1817667957
 20
955.2795449547
 10
359.6722157298
 20
953.4897220213
 10
359.2622680807
 20
951.482800733
 10
358.9620181202
 20
949.3081981525
 10
358.7788589987
 20
947.0194602125
 10
358.7173007016
 20
944.6729432369
  0
LWPOLYLINE
  5
14C
330
1B
100
AcDbEntity
  8
0
  6
Continuous
 62
     7
370
    25
100
AcDbPolyline
 90
       73
 70
   128
 43
0.0
 10
351.9364626636
 20
561.8847980522
 10
352.1171008459
 20
561.8146800015
 10
352.6478848127
 20
561.7446973637
 10
353.5278050496
 20
561.6749832409
 10
354.7551880095
 20
561.6056702244
 10
356.3276992955
 20
561.5368901429
 10
358.2423481002
 20
561.4687738113
 10
360.4954928947
 20
561.4014507821
 10
363.0828483544
 20
561.335049099
 10
365.9994935088
 20
561.2696950534
 10
369.2398811016
 20
561.2055129442
 10
372.7978481409
 20
561.1426248413
 10
376.6666276206
 20
561.0811503534
 10
380.8388613911
 20
561.0212064009
 10
385.3066141537
 20
560.9629069928
 10
390.0613885532
 20
560.9063630106
 10
395.0941413392
 20
560.8516819972
 10
400.3953005656
 20
560.7989679518
 10
405.9547837961
 20
560.7483211331
 10
411.7620172799
 20
560.6998378677
 10
417.8059560627
 20
560.6536103674
 10
424.0751049928
 20
560.6097265537
 10
430.5575405849
 20
560.5682698906
 10
437.2409336969
 20
560.5293192258
 10
444.1125729797
 20
560.4929486407
 10
451.1593890529
 20
560.4592273096
 10
458.3679793622
 20
560.4282193683
 10
465.7246336699
 20
560.3999837915
 10
473.2153601307
 20
560.3745742816
 10
480.8259119036
 20
560.3520391654
 10
488.541814248
 20
560.3324213034
 10
496.348392054
 20
560.3157580072
 10
504.2307977533
 20
560.3020809694
 10
512.1740395579
 20
560.2914162026
 10
520.1630099741
 20
560.2837839906
 10
528.1825145355
 20
560.2791988493
 10
536.2173007016
 20
560.2776694993
 10
544.2520868678
 20
560.2791988493
 10
552.2715914292
 20
560.2837839906
 10
560.2605618454
 20
560.2914162026
 10
568.20380365
 20
560.3020809694
 10
576.0862093492
 20
560.3157580072
 10
583.8927871553
 20
560.3324213034
 10
591.6086894997
 20
560.3520391654
 10
599.2192412726
 20
560.3745742816
 10
606.7099677334
 20
560.3999837915
 10
614.066622041
 20
560.4282193683
 10
621.2752123504
 20
560.4592273096
 10
628.3220284236
 20
560.4929486407
 10
635.1936677064
 20
560.5293192258
 10
641.8770608184
 20
560.5682698906
 10
648.3594964104
 20
560.6097265537
 10
654.6286453406
 20
560.6536103674
 10
660.6725841234
 20
560.6998378677
 10
666.4798176072
 20
560.7483211331
 10
672.0393008377
 20
560.7989679518
 10
677.3404600641
 20
560.8516819972
 10
682.3732128501
 20
560.9063630106
 10
687.1279872496
 20
560.9629069928
 10
691.5957400122
 20
561.0212064009
 10
695.7679737827
 20
561.0811503534
 10
699.6367532624
 20
561.1426248413
 10
703.1947203017
 20
561.2055129442
 10
706.4351078945
 20
561.2696950534
 10
709.3517530489
 20
561.335049099
 10
711.9391085085
 20
561.4014507821
 10
714.1922533031
 20
561.4687738113
 10
716.1069021078
 20
561.5368901429
 10
717.6794133938
 20
561.6056702244
 10
718.9067963537
 20
561.6749832409
 10
719.7867165906
 20
561.7446973637
 10
720.3175005574
 20
561.8146800015
 10
720.4981387397
 20
561.8847980522
  0
LWPOLYLINE
  5
14E
330
1B
100
AcDbEntity
  8
0
  6
Continuous
 62
     7
370
    25
100
AcDbPolyline
 90
       72
 70
   128
 43
0.0
 10
718.3677903429
 20
592.345083868
 10
718.1895062742
 20
592.1974375912
 10
717.6550030678
 20
592.0500803388
 10
716.7653270386
 20
591.9033005697
 10
715.5222197693
 20
591.7573856121
 10
713.9281147008
 20
591.6126211015
 10
711.9861323686
 20
591.4692904212
 10
709.7000742942
 20
591.3276741476
 10
707.0744155438
 20
591.1880495014
 10
704.1142959677
 20
591.0506898042
 10
700.8255101388
 20
590.9158639443
 10
697.21449601
 20
590.7838358494
 10
693.2883223109
 20
590.6548639708
 10
689.054674711
 20
590.5292007771
 10
684.5218407742
 20
590.4070922598
 10
679.6986937358
 20
590.2887774521
 10
674.5946751326
 20
590.1744879608
 10
669.2197763208
 20
590.0644475128
 10
663.5845189171
 20
589.9588715177
 10
657.6999342027
 20
589.8579666452
 10
651.5775415283
 20
589.7619304216
 10
645.2293257652
 20
589.6709508421
 10
638.6677138438
 20
589.5852060036
 10
631.9055504276
 20
589.5048637556
 10
624.956072769
 20
589.4300813718
 10
617.8328847969
 20
589.3610052423
 10
610.5499304863
 20
589.2977705869
 10
603.1214665623
 20
589.2405011903
 10
595.5620345917
 20
589.1893091601
 10
587.8864325177
 20
589.1442947071
 10
580.1096856918
 20
589.1055459492
 10
572.2470174611
 20
589.0731387389
 10
564.3138193679
 20
589.0471365148
 10
556.32562102
 20
589.0275901776
 10
548.2980596907
 20
589.01453799
 10
540.2468497085
 20
589.0080055024
 10
532.1877516948
 20
589.0080055024
 10
524.1365417125
 20
589.01453799
 10
516.1089803833
 20
589.0275901776
 10
508.1207820354
 20
589.0471365148
 10
500.1875839422
 20
589.0731387389
 10
492.3249157114
 20
589.1055459492
 10
484.5481688855
 20
589.1442947071
 10
476.8725668116
 20
589.1893091601
 10
469.313134841
 20
589.2405011903
 10
461.8846709169
 20
589.2977705869
 10
454.6017166063
 20
589.3610052423
 10
447.4785286343
 20
589.4300813718
 10
440.5290509757
 20
589.5048637556
 10
433.7668875595
 20
589.5852060036
 10
427.2052756381
 20
589.6709508421
 10
420.857059875
 20
589.7619304216
 10
414.7346672006
 20
589.8579666452
 10
408.8500824861
 20
589.9588715177
 10
403.2148250825
 20
590.0644475128
 10
397.8399262707
 20
590.1744879608
 10
392.7359076675
 20
590.2887774521
 10
387.9127606291
 20
590.4070922598
 10
383.3799266923
 20
590.5292007771
 10
379.1462790924
 20
590.6548639708
 10
375.2201053933
 20
590.7838358494
 10
371.6090912644
 20
590.9158639443
 10
368.3203054356
 20
591.0506898042
 10
365.3601858594
 20
591.1880495014
 10
362.734527109
 20
591.3276741476
 10
360.4484690347
 20
591.4692904212
 10
358.5064867025
 20
591.6126211015
 10
356.912381634
 20
591.7573856121
 10
355.6692743647
 20
591.9033005697
 10
354.7795983355
 20
592.0500803388
 10
354.2450951291
 20
592.1974375912
 10
354.0668110604
 20
592.345083868
  0
LWPOLYLINE
  5
151
330
1B
100
AcDbEntity
  8
0
  6
Continuous
 62
     7
370
    25
100
AcDbPolyline
 90
       54
 70
   128
 43
0.0
 10
376.9370274984
 20
600.4479531369
 10
378.2965832367
 20
600.3889648958
 10
381.5822985234
 20
600.2585534744
 10
385.188518466
 20
600.131017659
 10
389.1077686227
 20
600.0066217869
 10
393.3319257493
 20
599.8856236876
 10
397.8522346351
 20
599.7682741481
 10
402.6593262495
 20
599.6548163932
 10
407.7432371611
 20
599.5454855816
 10
413.0934301883
 20
599.4405083179
 10
418.6988162389
 20
599.3401021837
 10
424.5477772944
 20
599.2444752859
 10
430.6281904898
 20
599.1538258258
 10
436.9274532403
 20
599.0683416885
 10
443.4325093619
 20
598.9882000527
 10
450.1298761323
 20
598.9135670242
 10
457.0056722363
 20
598.8445972915
 10
464.0456465364
 20
598.7814338047
 10
471.2352076109
 20
598.72420748
 10
478.5594539965
 20
598.6730369275
 10
486.0032050741
 20
598.628028206
 10
493.5510325329
 20
598.5892746031
 10
501.187292348
 20
598.5568564414
 10
508.8961572046
 20
598.5308409125
 10
516.6616493033
 20
598.5112819377
 10
524.4676734757
 20
598.4982200559
 10
532.2980505449
 20
598.4916823397
 10
540.1365508584
 20
598.4916823397
 10
547.9669279276
 20
598.4982200559
 10
555.7729521
 20
598.5112819377
 10
563.5384441987
 20
598.5308409125
 10
571.2473090553
 20
598.5568564414
 10
578.8835688703
 20
598.5892746031
 10
586.4313963292
 20
598.628028206
 10
593.8751474068
 20
598.6730369275
 10
601.1993937924
 20
598.72420748
 10
608.3889548668
 20
598.7814338047
 10
615.428929167
 20
598.8445972915
 10
622.304725271
 20
598.9135670242
 10
629.0020920414
 20
598.9882000527
 10
635.507148163
 20
599.0683416885
 10
641.8064109135
 20
599.1538258258
 10
647.8868241089
 20
599.2444752859
 10
653.7357851644
 20
599.3401021837
 10
659.341171215
 20
599.4405083179
 10
664.6913642422
 20
599.5454855816
 10
669.7752751538
 20
599.6548163932
 10
674.5823667682
 20
599.7682741481
 10
679.1026756539
 20
599.8856236876
 10
683.3268327805
 20
600.0066217869
 10
687.2460829373
 20
600.131017659
 10
690.8523028799
 20
600.2585534744
 10
694.1380181666
 20
600.3889648958
 10
695.8673714681
 20
600.4645981411
  0
LWPOLYLINE
  5
159
330
1B
100
AcDbEntity
  8
0
  6
Continuous
 62
     7
370
    25
100
AcDbPolyline
 90
        3
 70
   128
 43
0.0
 10
354.0668110604
 20
596.7522298688
 10
354.3719921739
 20
598.6003742289
 10
354.7911056442
 20
599.850537642
  0
LWPOLYLINE
  5
15A
330
1B
100
AcDbEntity
  8
0
  6
Continuous
 62
     7
370
    25
100
AcDbPolyline
 90
        3
 70
   128
 43
0.0
 10
717.588985361
 20
599.980726598
 10
718.0626092294
 20
598.6003742289
 10
718.3677903429
 20
596.7522298688
  0
SPLINE
  5
15D
330
1B
100
AcDbEntity
  8
0
  6
Continuous
 62
     7
370
    25
100
AcDbSpline
210
0.0
220
0.0
230
1.0
 70
     8
 71
     3
 72
     8
 73
     4
 74
     0
 42
0.000000001
 43
0.00000001
 40
0.0
 40
0.0
 40
0.0
 40
0.0
 40
1.0
 40
1.0
 40
1.0
 40
1.0
 10
351.7793597544225
 20
563.9272364706726
 30
0.0
 10
351.7779122717463
 20
563.9460546723442
 30
0.0
 10
351.7814498417363
 20
564.0361120365452
 30
0.0
 10
351.7925908433604
 20
564.2348266483701
 30
0.0
  0
SPLINE
  5
160
330
1B
100
AcDbEntity
  8
0
  6
Continuous
 62
     7
370
    25
100
AcDbSpline
210
0.0
220
0.0
230
1.0
 70
     8
 71
     3
 72
     8
 73
     4
 74
     0
 42
0.000000001
 43
0.00000001
 40
0.0
 40
0.0
 40
0.0
 40
0.0
 40
1.0
 40
1.0
 40
1.0
 40
1.0
 10
720.6420105599228
 20
564.2348266483702
 30
0.0
 10
720.653151561547
 20
564.0361120365454
 30
0.0
 10
720.656689131537
 20
563.9460546723442
 30
0.0
 10
720.6552416488607
 20
563.9272364706726
 30
0.0
  0
LWPOLYLINE
  5
170
330
1B
100
AcDbEntity
  8
0
  6
Continuous
 62
     8
370
    25
100
AcDbPolyline
 90
       10
 70
   128
 43
0.0
 10
364.042451563
 20
601.6459571061
 10
364.2208808966
 20
601.5023543449
 10
364.7557990751
 20
601.3590492224
 10
365.6460973991
 20
601.2163387602
 10
366.8899305892
 20
601.0745187477
 10
368.4847206114
 20
600.9338831284
 10
370.4271620196
 20
600.7947233912
 10
372.7132288074
 20
600.6573279659
 10
375.3381827524
 20
600.5219816254
 10
376.9370274984
 20
600.4479531369
  0
LWPOLYLINE
  5
171
330
1B
100
AcDbEntity
  8
0
  6
Continuous
 62
     8
370
    25
100
AcDbPolyline
 90
       10
 70
   128
 43
0.0
 10
695.8673714681
 20
600.4645981411
 10
697.0964186508
 20
600.5219816254
 10
699.7213725959
 20
600.6573279659
 10
702.0074393837
 20
600.7947233912
 10
703.9498807919
 20
600.9338831284
 10
705.544670814
 20
601.0745187477
 10
706.7885040042
 20
601.2163387602
 10
707.6788023282
 20
601.3590492224
 10
708.2137205067
 20
601.5023543449
 10
708.3921498403
 20
601.6459571061
  0
LINE
  5
174
330
1B
100
AcDbEntity
  8
0
  6
Continuous
 62
     7
370
    25
100
AcDbLine
 10
385.4921671759
 20
553.8717527639
 30
0.0
 11
396.1178590745
 21
553.6742755514
 31
0.0
  0
LINE
  5
175
330
1B
100
AcDbEntity
  8
0
  6
Continuous
 62
     7
370
    25
100
AcDbLine
 10
676.3167423288
 20
553.6742755514
 30
0.0
 11
686.9424342274
 21
553.8717527639
 31
0.0
  0
LINE
  5
176
330
1B
100
AcDbEntity
  8
0
  6
Continuous
 62
     7
370
    25
100
AcDbLine
 10
697.7173007016
 20
606.2503981415
 30
0.0
 11
374.7173007016
 21
606.2503981415
 31
0.0
  0
LINE
  5
177
330
1B
100
AcDbEntity
  8
0
  6
Continuous
 62
     7
370
    25
100
AcDbLine
 10
653.2173007016
 20
557.2090105429
 30
0.0
 11
653.2173007016
 21
553.8513206397
 31
0.0
  0
LINE
  5
178
330
1B
100
AcDbEntity
  8
0
  6
Continuous
 62
     7
370
    25
100
AcDbLine
 10
419.2173007016
 20
557.2090105429
 30
0.0
 11
419.2173007016
 21
553.8513206397
 31
0.0
  0
LINE
  5
179
330
1B
100
AcDbEntity
  8
0
  6
Continuous
 62
     7
370
    25
100
AcDbLine
 10
713.4071606098
 20
560.0230348641
 30
0.0
 11
713.3079554162
 21
561.4410310992
 31
0.0
  0
LINE
  5
17A
330
1B
100
AcDbEntity
  8
0
  6
Continuous
 62
     7
370
    25
100
AcDbLine
 10
713.4071606098
 20
560.0230348641
 30
0.0
 11
713.1044394746
 21
558.3645627911
 31
0.0
  0
LINE
  5
17B
330
1B
100
AcDbEntity
  8
0
  6
Continuous
 62
     7
370
    25
100
AcDbLine
 10
359.1266459871
 20
561.4410310992
 30
0.0
 11
359.0274407934
 21
560.0230348641
 31
0.0
  0
LINE
  5
17C
330
1B
100
AcDbEntity
  8
0
  6
Continuous
 62
     7
370
    25
100
AcDbLine
 10
359.0274407934
 20
560.0230348641
 30
0.0
 11
359.3301619287
 21
558.3645627911
 31
0.0
  0
LINE
  5
17D
330
1B
100
AcDbEntity
  8
0
  6
Continuous
 62
     7
370
    25
100
AcDbLine
 10
720.2173007016
 20
925.6729432369
 30
0.0
 11
720.2173007016
 21
570.3074407294
 31
0.0
  0
LINE
  5
17E
330
1B
100
AcDbEntity
  8
0
  6
Continuous
 62
     7
370
    25
100
AcDbLine
 10
352.2173007016
 20
570.3074407294
 30
0.0
 11
352.2173007016
 21
925.6729432369
 31
0.0
  0
LINE
  5
17F
330
1B
100
AcDbEntity
  8
0
  6
Continuous
 62
     7
370
    25
100
AcDbLine
 10
718.130190632
 20
548.1438362284
 30
0.0
 11
718.1384275007
 21
548.1504238095
 31
0.0
  0
LINE
  5
180
330
1B
100
AcDbEntity
  8
0
  6
Continuous
 62
     7
370
    25
100
AcDbLine
 10
713.7173007016
 20
925.6729432369
 30
0.0
 11
713.7173007016
 21
944.6729432369
 31
0.0
  0
LINE
  5
181
330
1B
100
AcDbEntity
  8
0
  6
Continuous
 62
     7
370
    25
100
AcDbLine
 10
723.7173007016
 20
944.6729432369
 30
0.0
 11
723.7173007016
 21
925.6729432369
 31
0.0
  0
LINE
  5
182
330
1B
100
AcDbEntity
  8
0
  6
Continuous
 62
     7
370
    25
100
AcDbLine
 10
348.7173007016
 20
925.6729432369
 30
0.0
 11
723.7173007016
 21
925.6729432369
 31
0.0
  0
LINE
  5
183
330
1B
100
AcDbEntity
  8
0
  6
Continuous
 62
     7
370
    25
100
AcDbLine
 10
348.7173007016
 20
925.6729432369
 30
0.0
 11
348.7173007016
 21
944.6729432369
 31
0.0
  0
LINE
  5
184
330
1B
100
AcDbEntity
  8
0
  6
Continuous
 62
     7
370
    25
100
AcDbLine
 10
723.7173007016
 20
944.6729432369
 30
0.0
 11
348.7173007016
 21
944.6729432369
 31
0.0
  0
LINE
  5
185
330
1B
100
AcDbEntity
  8
0
  6
Continuous
 62
     7
370
    25
100
AcDbLine
 10
358.7173007016
 20
944.6729432369
 30
0.0
 11
358.7173007016
 21
925.6729432369
 31
0.0
  0
LINE
  5
186
330
1B
100
AcDbEntity
  8
0
  6
Continuous
 62
     7
370
    25
100
AcDbLine
 10
363.7173007016
 20
959.6729432369
 30
0.0
 11
708.7173007016
 21
959.6729432369
 31
0.0
  0
LINE
  5
187
330
1B
100
AcDbEntity
  8
0
  6
Continuous
 62
     7
370
    25
100
AcDbLine
 10
351.9364626636
 20
561.8847980522
 30
0.0
 11
354.0668110604
 21
592.345083868
 31
0.0
  0
LINE
  5
188
330
1B
100
AcDbEntity
  8
0
  6
Continuous
 62
     7
370
    25
100
AcDbLine
 10
720.4981387397
 20
561.8847980522
 30
0.0
 11
718.3677903429
 21
592.345083868
 31
0.0
  0
LINE
  5
189
330
1B
100
AcDbEntity
  8
0
  6
Continuous
 62
     7
370
    25
100
AcDbLine
 10
708.3921498403
 20
601.6459571061
 30
0.0
 11
708.3921498403
 21
606.0531031069
 31
0.0
  0
LINE
  5
18A
330
1B
100
AcDbEntity
  8
0
  6
Continuous
 62
     7
370
    25
100
AcDbLine
 10
364.042451563
 20
606.0531031069
 30
0.0
 11
364.042451563
 21
601.6459571061
 31
0.0
  0
LINE
  5
18B
330
1B
100
AcDbEntity
  8
0
  6
Continuous
 62
     7
370
    25
100
AcDbLine
 10
697.7173007016
 20
606.248718985
 30
0.0
 11
374.7173007016
 21
606.248718985
 31
0.0
  0
LINE
  5
18C
330
1B
100
AcDbEntity
  8
0
  6
Continuous
 62
     7
370
    25
100
AcDbLine
 10
354.0668110604
 20
592.345083868
 30
0.0
 11
354.0668110604
 21
596.7522298688
 31
0.0
  0
LINE
  5
18D
330
1B
100
AcDbEntity
  8
0
  6
Continuous
 62
     7
370
    25
100
AcDbLine
 10
718.3677903429
 20
596.7522298688
 30
0.0
 11
718.3677903429
 21
592.345083868
 31
0.0
  0
LINE
  5
18E
330
1B
100
AcDbEntity
  8
0
  6
Continuous
 62
     7
370
    25
100
AcDbLine
 10
351.7925908434
 20
564.2348266484
 30
0.0
 11
354.0668110604
 21
596.7522298688
 31
0.0
  0
LINE
  5
18F
330
1B
100
AcDbEntity
  8
0
  6
Continuous
 62
     7
370
    25
100
AcDbLine
 10
351.7793597544
 20
563.9272364707
 30
0.0
 11
351.9364626636
 21
561.8847980522
 31
0.0
  0
LINE
  5
190
330
1B
100
AcDbEntity
  8
0
  6
Continuous
 62
     7
370
    25
100
AcDbLine
 10
720.6420105599
 20
564.2348266484
 30
0.0
 11
718.3677903429
 21
596.7522298688
 31
0.0
  0
LINE
  5
191
330
1B
100
AcDbEntity
  8
0
  6
Continuous
 62
     7
370
    25
100
AcDbLine
 10
720.4981387397
 20
561.8847980522
 30
0.0
 11
720.6552416489
 21
563.9272364707
 31
0.0
  0
LINE
  5
192
330
1B
100
AcDbEntity
  8
0
  6
Continuous
 62
     7
370
    25
100
AcDbLine
 10
374.7173007016
 20
606.248718985
 30
0.0
 11
374.7173007016
 21
606.2503981415
 31
0.0
  0
LINE
  5
193
330
1B
100
AcDbEntity
  8
0
  6
Continuous
 62
     7
370
    25
100
AcDbLine
 10
697.7173007016
 20
606.248718985
 30
0.0
 11
697.7173007016
 21
606.2503981415
 31
0.0
  0
LINE
  5
194
330
1B
100
AcDbEntity
  8
0
  6
Continuous
 62
     8
370
    25
100
AcDbLine
 10
359.544523292
 20
561.4285516306
 30
0.0
 11
359.3301619287
 21
558.3645627911
 31
0.0
  0
LINE
  5
195
330
1B
100
AcDbEntity
  8
0
  6
Continuous
 62
     8
370
    25
100
AcDbLine
 10
712.8900781112
 20
561.4285516306
 30
0.0
 11
713.1044394746
 21
558.3645627911
 31
0.0
  0
LINE
  5
196
330
1B
100
AcDbEntity
  8
0
  6
Continuous
 62
     8
370
    25
100
AcDbLine
 10
710.2173007016
 20
605.8914517258
 30
0.0
 11
710.2173007016
 21
925.6729432369
 31
0.0
  0
LINE
  5
197
330
1B
100
AcDbEntity
  8
0
  6
Continuous
 62
     8
370
    25
100
AcDbLine
 10
362.2173007016
 20
925.6729432369
 30
0.0
 11
362.2173007016
 21
605.892605855
 31
0.0
  0
LINE
  5
198
330
1B
100
AcDbEntity
  8
0
  6
Continuous
 62
     8
370
    25
100
AcDbLine
 10
362.2173007016
 20
558.0891860735
 30
0.0
 11
362.2173007016
 21
553.6729432369
 31
0.0
  0
LINE
  5
199
330
1B
100
AcDbEntity
  8
0
  6
Continuous
 62
     8
370
    25
100
AcDbLine
 10
710.2173007016
 20
558.0891860735
 30
0.0
 11
710.2173007016
 21
553.6729432369
 31
0.0
  0
LINE
  5
19A
330
1B
100
AcDbEntity
  8
0
  6
Continuous
 62
     8
370
    25
100
AcDbLine
 10
354.2987139864
 20
548.1483577138
 30
0.0
 11
354.3023856367
 21
548.1453786881
 31
0.0
  0
ARC
  5
19B
330
1B
100
AcDbEntity
  8
0
  6
Continuous
 62
     7
370
    25
100
AcDbCircle
 10
375.1817454062
 20
565.0464369149
 30
0.0
 40
9.900198614092876
100
AcDbArc
 50
226.3727691954
 51
270.000171998
  0
ARC
  5
19C
330
1B
100
AcDbEntity
  8
0
  6
Continuous
 62
     7
370
    25
100
AcDbCircle
 10
375.2503264787
 20
565.0465499572
 30
0.0
 40
9.900311656339307
100
AcDbArc
 50
269.9999614644
 51
294.9757751328
  0
ARC
  5
19D
330
1B
100
AcDbEntity
  8
0
  6
Continuous
 62
     7
370
    25
100
AcDbCircle
 10
697.2528559971
 20
565.0464369149
 30
0.0
 40
9.900198614092293
100
AcDbArc
 50
269.999828002
 51
313.6272308046
  0
ARC
  5
19E
330
1B
100
AcDbEntity
  8
0
  6
Continuous
 62
     7
370
    25
100
AcDbCircle
 10
697.1842749936
 20
565.0465505197
 30
0.0
 40
9.900312218767743
100
AcDbArc
 50
245.1882133515
 51
270.0000381367
  0
ARC
  5
19F
330
1B
100
AcDbEntity
  8
0
  6
Continuous
 62
     7
370
    25
100
AcDbCircle
 10
362.2173007016
 20
563.6729432369
 30
0.0
 40
10.00000000000011
100
AcDbArc
 50
190.9587591792
 51
270.0
  0
ARC
  5
1A0
330
1B
100
AcDbEntity
  8
0
  6
Continuous
 62
     7
370
    25
100
AcDbCircle
 10
710.2173007016
 20
563.6729432369
 30
0.0
 40
9.999999999999886
100
AcDbArc
 50
270.0
 51
349.0412408187
  0
ARC
  5
1A1
330
1B
100
AcDbEntity
  8
0
  6
Continuous
 62
     7
370
    25
100
AcDbCircle
 10
713.1658051571
 20
548.6729432799
 30
0.0
 40
4.999999956951486
100
AcDbArc
 50
354.0014154106
 51
89.9999992631
  0
ARC
  5
1A2
330
1B
100
AcDbEntity
  8
0
  6
Continuous
 62
     7
370
    25
100
AcDbCircle
 10
359.2687962462
 20
548.6729432799
 30
0.0
 40
4.99999995695151
100
AcDbArc
 50
90.0000007369
 51
185.9985845894
  0
ARC
  5
1A3
330
1B
100
AcDbEntity
  8
0
  6
Continuous
 62
     7
370
    25
100
AcDbCircle
 10
708.7173007016
 20
944.6729432369
 30
0.0
 40
14.99999999999977
100
AcDbArc
 50
0.0
 51
90.0
  0
ARC
  5
1A4
330
1B
100
AcDbEntity
  8
0
  6
Continuous
 62
     7
370
    25
100
AcDbCircle
 10
363.7173007016
 20
944.6729432369
 30
0.0
 40
15.0
100
AcDbArc
 50
90.0
 51
180.0
  0
ARC
  5
1A5
330
1B
100
AcDbEntity
  8
0
  6
Continuous
 62
     7
370
    25
100
AcDbCircle
 10
364.041690272
 20
591.646656345
 30
0.0
 40
9.999300790111658
100
AcDbArc
 50
89.9956378189
 51
175.9947640092
  0
ARC
  5
1A6
330
1B
100
AcDbEntity
  8
0
  6
Continuous
 62
     7
370
    25
100
AcDbCircle
 10
708.3929111313
 20
591.646656345
 30
0.0
 40
9.999300790111787
100
AcDbArc
 50
4.0052359908
 51
90.0043621811
  0
ARC
  5
1A7
330
1B
100
AcDbEntity
  8
0
  6
Continuous
 62
     7
370
    25
100
AcDbCircle
 10
700.3851168244
 20
460.4691407387
 30
0.0
 40
145.8039871764344
100
AcDbArc
 50
86.8519372184
 51
91.0484153255
  0
ARC
  5
1A8
330
1B
100
AcDbEntity
  8
0
  6
Continuous
 62
     7
370
    25
100
AcDbCircle
 10
372.0494845789
 20
460.4691407389
 30
0.0
 40
145.8039871761742
100
AcDbArc
 50
88.9515846745
 51
93.1480627816
  0
ARC
  5
1A9
330
1B
100
AcDbEntity
  8
0
  6
Continuous
 62
     8
370
    25
100
AcDbCircle
 10
676.0252548344
 20
562.3613688537
 30
0.0
 40
8.691982225146841
100
AcDbArc
 50
271.9217866208
 51
326.0603240761
  0
ARC
  5
1AA
330
1B
100
AcDbEntity
  8
0
  6
Continuous
 62
     8
370
    25
100
AcDbCircle
 10
396.4093465689
 20
562.3613688537
 30
0.0
 40
8.691982225147727
100
AcDbArc
 50
213.9396759239
 51
268.0782133792
  0
ARC
  5
1AB
330
1B
100
AcDbEntity
  8
0
  6
Continuous
 62
     8
370
    25
100
AcDbCircle
 10
385.7825380372
 20
562.554949438
 30
0.0
 40
8.688050397982934
100
AcDbArc
 50
214.2425215729
 51
268.0847114188
  0
ARC
  5
1AC
330
1B
100
AcDbEntity
  8
0
  6
Continuous
 62
     8
370
    25
100
AcDbCircle
 10
686.6520633661
 20
562.554949438
 30
0.0
 40
8.688050397980557
100
AcDbArc
 50
271.9152885812
 51
325.7574784271
  0
ARC
  5
1AD
330
1B
100
AcDbEntity
  8
0
  6
Continuous
 62
     8
370
    25
100
AcDbCircle
 10
364.042036263
 20
596.0530848733
 30
0.0
 40
10.00001824223252
100
AcDbArc
 50
89.9976205104
 51
157.6821374882
  0
ARC
  5
1AE
330
1B
100
AcDbEntity
  8
0
  6
Continuous
 62
     8
370
    25
100
AcDbCircle
 10
708.3927150484
 20
596.0532996006
 30
0.0
 40
9.999803522195506
100
AcDbArc
 50
23.1257469577
 51
90.0032384679
  0
VIEWPORT
  5
27B
330
1B
100
AcDbEntity
  8
0
100
AcDbViewport
 10
0.0
 20
0.0
 30
0.0
 40
205.6
 41
156.0
 68
     1
 69
     1
 12
245.7364336468
 22
544.1729432369
 13
0.0
 23
0.0
 14
10.0
 24
10.0
 15
10.0
 25
10.0
 16
0.0
 26
0.0
 36
1.0
 17
0.0
 27
0.0
 37
0.0
 42
50.0
 43
0.0
 44
0.0
 45
847.62
 50
0.0
 51
0.0
 72
   100
 90
   557152
  1

281
     0
 71
     1
 74
     0
110
0.0
120
0.0
130
0.0
111
1.0
121
0.0
131
0.0
112
0.0
122
1.0
132
0.0
 79
     0
146
0.0
  0
ENDBLK
  5
1D
330
1B
100
AcDbEntity
  8
0
100
AcDbBlockEnd
  0
ENDSEC
  0
SECTION
  2
ENTITIES
  0
SPLINE
  5
7E
330
1F
100
AcDbEntity
  8
0
  6
Continuous
 62
     7
370
    25
100
AcDbSpline
210
0.0
220
0.0
230
1.0
 70
     8
 71
     3
 72
    26
 73
    22
 74
     0
 42
0.000000001
 43
0.00000001
 40
0.0
 40
0.0
 40
0.0
 40
0.0
 40
0.065372660344744
 40
0.1364563327489921
 40
0.2053528786634987
 40
0.2720915211981683
 40
0.336704411458059
 40
0.3981286716430075
 40
0.4575736057816999
 40
0.5150800489621438
 40
0.570693106572785
 40
0.6196496373573275
 40
0.6671238285167077
 40
0.7131609238688988
 40
0.7578105361084914
 40
0.8011270456663383
 40
0.8431700061930899
 40
0.8840045438038285
 40
0.9237017325753459
 40
0.962338923639009
 40
0.9999999999999999
 40
0.9999999999999999
 40
0.9999999999999999
 40
0.9999999999999999
 10
-81.61814755958386
 20
548.7336049496874
 30
0.0
 10
-81.70174437589833
 20
539.2668126665687
 30
0.0
 10
-81.8762410985896
 20
519.5062009515417
 30
0.0
 10
-81.44048508422081
 20
489.7685050434092
 30
0.0
 10
-80.45366665953996
 20
459.8472065552316
 30
0.0
 10
-78.87042321143828
 20
430.8891307772225
 30
0.0
 10
-76.71887329045101
 20
403.0529185164279
 30
0.0
 10
-74.00709661541715
 20
376.3269374609613
 30
0.0
 10
-70.74940946403679
 20
350.6988170886805
 30
0.0
 10
-66.92834007390303
 20
325.9995591361143
 30
0.0
 10
-62.6702870703737
 20
302.914433465928
 30
0.0
 10
-58.03738785896378
 20
281.3860957636748
 30
0.0
 10
-53.09500683770929
 20
261.3520414531896
 30
0.0
 10
-47.68666564762436
 20
242.0854404430284
 30
0.0
 10
-41.81207848122642
 20
223.586281965532
 30
0.0
 10
-35.47146204298579
 20
205.8542457727929
 30
0.0
 10
-28.6631312579313
 20
188.8902622696702
 30
0.0
 10
-21.39204068016492
 20
172.6909045130186
 30
0.0
 10
-13.63927185874014
 20
157.2685018903566
 30
0.0
 10
-5.471274276196758
 20
142.5791913772141
 30
0.0
 10
0.4822730177919676
 20
133.2686547925063
 30
0.0
 10
3.420963591324322
 20
128.6729432368705
 30
0.0
  0
SPLINE
  5
A0
330
1F
100
AcDbEntity
  8
0
  6
Continuous
 62
     7
370
    25
100
AcDbSpline
210
0.0
220
0.0
230
1.0
 70
    24
 71
     3
 72
    27
 73
    23
 74
     0
 42
0.000000001
 43
0.00000001
 40
0.0
 40
0.0
 40
0.0
 40
0.0
 40
0.0020245179123336
 40
0.0550368294494379
 40
0.1092031733979685
 40
0.1637691591998561
 40
0.2164054206207906
 40
0.2694065848308775
 40
0.3235612650551887
 40
0.3781129109844983
 40
0.4307574838800286
 40
0.4837676503646805
 40
0.5379317122392719
 40
0.592495378042669
 40
0.6456899023623391
 40
0.6992625047437167
 40
0.7540249773890007
 40
0.8091991404342007
 40
0.8562309355103848
 40
0.9035218829885933
 40
0.9516224595006899
 40
1.0
 40
1.0
 40
1.0
 40
1.0
 10
-76.62360374489351
 20
553.6729432368704
 30
0.0
 10
-76.6310612369096
 20
553.6729432368704
 30
0.0
 10
-76.83379429928972
 20
553.6729432368703
 30
0.0
 10
-76.08923852396255
 20
553.6729432368703
 30
0.0
 10
-74.26893890816005
 20
553.6729432368707
 30
0.0
 10
-71.03647607276015
 20
553.6729432368704
 30
0.0
 10
-66.6540722766319
 20
553.6729432368704
 30
0.0
 10
-61.11074227237312
 20
553.6729432368704
 30
0.0
 10
-54.34336644507615
 20
553.6729432368707
 30
0.0
 10
-46.47720820733336
 20
553.6729432368703
 30
0.0
 10
-37.62097596262859
 20
553.6729432368705
 30
0.0
 10
-27.82876803316237
 20
553.6729432368703
 30
0.0
 10
-17.00082599122943
 20
553.6729432368704
 30
0.0
 10
-5.306241881244955
 20
553.6729432368704
 30
0.0
 10
7.098835704087647
 20
553.6729432368703
 30
0.0
 10
20.18615101151022
 20
553.6729432368704
 30
0.0
 10
34.01726684414002
 20
553.6729432368704
 30
0.0
 10
47.7696362804037
 20
553.6729432368704
 30
0.0
 10
61.1913177433995
 20
553.6729432368704
 30
0.0
 10
74.19539779356666
 20
553.6729432368704
 30
0.0
 10
87.47121622639354
 20
553.6729432368705
 30
0.0
 10
96.42914249885465
 20
553.6729432368705
 30
0.0
 10
100.9209635921766
 20
553.6729432368704
 30
0.0
  0
SPLINE
  5
A2
330
1F
100
AcDbEntity
  8
0
  6
Continuous
 62
     7
370
    25
100
AcDbSpline
210
0.0
220
0.0
230
1.0
 70
    24
 71
     3
 72
    15
 73
    11
 74
     0
 42
0.000000001
 43
0.00000001
 40
0.4490684854056353
 40
0.4490684854056353
 40
0.4490684854056353
 40
0.4490684854056353
 40
0.4665885342248676
 40
0.4841085830441
 40
0.5016286318633325
 40
0.5191486806825647
 40
0.5366687295017971
 40
0.5541887783210295
 40
0.5717088271402619
 40
0.589228875929349
 40
0.589228875929349
 40
0.589228875929349
 40
0.589228875929349
 10
3.420963591324322
 20
128.6729432368705
 30
0.0
 10
3.420963591324322
 20
128.6729432368705
 30
0.0
 10
5.023924642961641
 20
128.6729432368705
 30
0.0
 10
11.89976295180556
 20
128.6729432368705
 30
0.0
 10
22.90951156851317
 20
128.6729432368705
 30
0.0
 10
37.73013764101702
 20
128.6729432368705
 30
0.0
 10
56.03860831724947
 20
128.6729432368705
 30
0.0
 10
77.47313408339556
 20
128.6729432368705
 30
0.0
 10
101.6522147470087
 20
128.6729432368705
 30
0.0
 10
119.3027673223082
 20
128.6729432368705
 30
0.0
 10
128.420963638449
 20
128.6729432368705
 30
0.0
  0
LWPOLYLINE
  5
A3
330
1F
100
AcDbEntity
  8
0
  6
Continuous
 62
     7
370
    25
100
AcDbPolyline
 90
        5
 70
   128
 43
0.0
 10
573.3205737617
 20
548.0216336187
 10
563.3205744041
 20
548.0238152342
 10
523.3205775202
 20
548.0334634868
 10
363.32059592
 20
548.0809593139
 10
100.9220195522
 20
548.1504238095
  0
SPLINE
  5
A4
330
1F
100
AcDbEntity
  8
0
  6
Continuous
 62
     7
370
    25
100
AcDbSpline
210
0.0
220
0.0
230
1.0
 70
     8
 71
     3
 72
     8
 73
     4
 74
     0
 42
0.000000001
 43
0.00000001
 40
0.0129072552800202
 40
0.0129072552800202
 40
0.0129072552800202
 40
0.0129072552800202
 40
0.9960025000888971
 40
0.9960025000888971
 40
0.9960025000888971
 40
0.9960025000888971
 10
573.3205737616654
 20
548.0216336187009
 30
0.0
 10
570.8051343850568
 20
404.5972549667789
 30
0.0
 10
570.8281402188879
 20
265.3634072436507
 30
0.0
 10
573.3895912631597
 20
130.3200904493166
 30
0.0
  0
SPLINE
  5
A5
330
1F
100
AcDbEntity
  8
0
  6
Continuous
 62
     7
370
    25
100
AcDbSpline
210
0.0
220
0.0
230
1.0
 70
     8
 71
     3
 72
    16
 73
    12
 74
     0
 42
0.000000001
 43
0.00000001
 40
0.0
 40
0.0
 40
0.0
 40
0.0
 40
0.2500000000000025
 40
0.2500000000000025
 40
0.500000000000005
 40
0.500000000000005
 40
0.6250000000000009
 40
0.6250000000000009
 40
0.7499999999999968
 40
0.7499999999999968
 40
1.0
 40
1.0
 40
1.0
 40
1.0
 10
571.4209635913244
 20
128.6729432368705
 30
0.0
 10
571.6563495640492
 20
128.6729432368705
 30
0.0
 10
571.8858439825041
 20
128.7136332825717
 30
0.0
 10
572.326534753246
 20
128.8743465211464
 30
0.0
 10
572.5286492650176
 20
128.9914307150696
 30
0.0
 10
572.7966672635201
 20
129.2165599135396
 30
0.0
 10
572.8783400949981
 20
129.2983948298051
 30
0.0
 10
573.0268290872244
 20
129.4752264064369
 30
0.0
 10
573.0941527777007
 20
129.5711653643196
 30
0.0
 10
573.2685093224482
 20
129.8726427265605
 30
0.0
 10
573.348459849223
 20
130.090611067226
 30
0.0
 10
573.3895912631594
 20
130.320090449316
 30
0.0
  0
SPLINE
  5
A7
330
1F
100
AcDbEntity
  8
0
  6
Continuous
 62
     7
370
    25
100
AcDbSpline
210
0.0
220
0.0
230
1.0
 70
    11
 71
     3
 72
    86
 73
    82
 74
     0
 42
0.000000001
 43
0.00000001
 40
0.0
 40
0.0
 40
0.0
 40
0.0
 40
0.0312500000000062
 40
0.0312500000000062
 40
0.0468750000000088
 40
0.0468750000000088
 40
0.0625000000000114
 40
0.0625000000000114
 40
0.093750000000018
 40
0.093750000000018
 40
0.1250000000000245
 40
0.1250000000000245
 40
0.1562500000000311
 40
0.1562500000000311
 40
0.1718750000000324
 40
0.1718750000000324
 40
0.1875000000000337
 40
0.1875000000000337
 40
0.2187500000000363
 40
0.2187500000000363
 40
0.2500000000000389
 40
0.2500000000000389
 40
0.2812500000000415
 40
0.2812500000000415
 40
0.3125000000000441
 40
0.3125000000000441
 40
0.3281250000000451
 40
0.3281250000000451
 40
0.3437500000000462
 40
0.3437500000000462
 40
0.3750000000000469
 40
0.3750000000000469
 40
0.4062500000000476
 40
0.4062500000000476
 40
0.4218750000000493
 40
0.4218750000000493
 40
0.437500000000051
 40
0.437500000000051
 40
0.4687500000000522
 40
0.4687500000000522
 40
0.5000000000000534
 40
0.5000000000000534
 40
0.5312500000000546
 40
0.5312500000000546
 40
0.5468750000000556
 40
0.5468750000000556
 40
0.5625000000000567
 40
0.5625000000000567
 40
0.5937500000000571
 40
0.5937500000000571
 40
0.6250000000000573
 40
0.6250000000000573
 40
0.6406250000000561
 40
0.6406250000000561
 40
0.6562500000000548
 40
0.6562500000000548
 40
0.6875000000000556
 40
0.6875000000000556
 40
0.7187500000000563
 40
0.7187500000000563
 40
0.7500000000000571
 40
0.7500000000000571
 40
0.7812500000000578
 40
0.7812500000000578
 40
0.7968750000000556
 40
0.7968750000000556
 40
0.8125000000000535
 40
0.8125000000000535
 40
0.843750000000045
 40
0.843750000000045
 40
0.8750000000000363
 40
0.8750000000000363
 40
0.9062500000000278
 40
0.9062500000000278
 40
0.9218750000000232
 40
0.9218750000000232
 40
0.9375000000000187
 40
0.9375000000000187
 40
0.9687500000000093
 40
0.9687500000000093
 40
1.0
 40
1.0
 40
1.0
 40
1.0
 10
420.9209635913244
 20
168.6729432368705
 30
0.0
 10
420.9209635913243
 20
169.0343074348725
 30
0.0
 10
420.8856957343893
 20
169.3897264593021
 30
0.0
 10
420.7820102479199
 20
169.9142923584554
 30
0.0
 10
420.7389222932868
 20
170.0877100683293
 30
0.0
 10
420.6353054308884
 20
170.4316044104188
 30
0.0
 10
420.5744333878127
 20
170.6027136779905
 30
0.0
 10
420.3690892736716
 20
171.1009283741078
 30
0.0
 10
420.2014415596021
 20
171.4161906842755
 30
0.0
 10
419.8051318589715
 20
172.0132193877059
 30
0.0
 10
419.5739256702104
 20
172.2967097563569
 30
0.0
 10
419.0678439827869
 20
172.8056229034767
 30
0.0
 10
418.7915752553869
 20
173.0341091599113
 30
0.0
 10
418.3415105337646
 20
173.3369654662938
 30
0.0
 10
418.1849502141305
 20
173.4314143933444
 30
0.0
 10
417.8665662202081
 20
173.6026184370882
 30
0.0
 10
417.7039979689944
 20
173.6799443226306
 30
0.0
 10
417.2063332390613
 20
173.8875073213021
 30
0.0
 10
416.8599809250445
 20
173.9938497918031
 30
0.0
 10
416.1453338472275
 20
174.1372002939126
 30
0.0
 10
415.7864118104812
 20
174.1726146387922
 30
0.0
 10
415.0654740225935
 20
174.1732673270059
 30
0.0
 10
414.699398531618
 20
174.1373940709844
 30
0.0
 10
413.9898447043094
 20
173.9957975261655
 30
0.0
 10
413.6454841827235
 20
173.8910305827785
 30
0.0
 10
413.1445477184342
 20
173.6829952768823
 30
0.0
 10
412.979294761084
 20
173.6045899840601
 30
0.0
 10
412.6597388558662
 20
173.433040323688
 30
0.0
 10
412.5053269643316
 20
173.3399921948339
 30
0.0
 10
412.057748684261
 20
173.0396258628079
 30
0.0
 10
411.7800884440123
 20
172.811290723454
 30
0.0
 10
411.2675557090303
 20
172.296628477247
 30
0.0
 10
411.0404573250814
 20
172.0179606212057
 30
0.0
 10
410.7431572360501
 20
171.5712396011301
 30
0.0
 10
410.651237762681
 20
171.4174111555564
 30
0.0
 10
410.4820264186792
 20
171.0997288149113
 30
0.0
 10
410.404571318877
 20
170.9352613944475
 30
0.0
 10
410.1991578175364
 20
170.4369851778478
 30
0.0
 10
410.0960873832608
 20
170.0954620800147
 30
0.0
 10
409.9567218657379
 20
169.3940041598603
 30
0.0
 10
409.9210718925347
 20
169.0315477982656
 30
0.0
 10
409.920855794098
 20
168.317668485784
 30
0.0
 10
409.9551650651167
 20
167.9628887113966
 30
0.0
 10
410.0593072160105
 20
167.4340228792138
 30
0.0
 10
410.1030669027448
 20
167.2579777450214
 30
0.0
 10
410.2065232088503
 20
166.9146019642065
 30
0.0
 10
410.2663635115617
 20
166.7463128161368
 30
0.0
 10
410.4698295202529
 20
166.2514770587409
 30
0.0
 10
410.6378447282348
 20
165.9338406349236
 30
0.0
 10
411.0378920000644
 20
165.3308492004425
 30
0.0
 10
411.2644448882536
 20
165.0533218508339
 30
0.0
 10
411.6428881597869
 20
164.6719155300905
 30
0.0
 10
411.7755180995041
 20
164.5506362485318
 30
0.0
 10
412.0541147052331
 20
164.3201261814262
 30
0.0
 10
412.2003396201423
 20
164.2108658293969
 30
0.0
 10
412.6493857896124
 20
163.9086415351289
 30
0.0
 10
412.9655196326055
 20
163.7382685623363
 30
0.0
 10
413.6313287932918
 20
163.4597459005355
 30
0.0
 10
413.9829774608701
 20
163.3520312947115
 30
0.0
 10
414.6896763329194
 20
163.2098738657859
 30
0.0
 10
415.0483076390215
 20
163.1735179510375
 30
0.0
 10
415.7764576526785
 20
163.1723819104614
 30
0.0
 10
416.138684237525
 20
163.2080966628742
 30
0.0
 10
416.6684937429341
 20
163.3132710200599
 30
0.0
 10
416.8434187029188
 20
163.3569876048857
 30
0.0
 10
417.1898585353895
 20
163.4620149603929
 30
0.0
 10
417.3622886144797
 20
163.5237538405295
 30
0.0
 10
417.8648075875435
 20
163.7323760971774
 30
0.0
 10
418.1816660295217
 20
163.9023984577142
 30
0.0
 10
418.7799011478164
 20
164.3029187593885
 30
0.0
 10
419.0630658604332
 20
164.5360216504107
 30
0.0
 10
419.5701991041777
 20
165.0448757333586
 30
0.0
 10
419.7971379580395
 20
165.3219584528701
 30
0.0
 10
420.0971528561816
 20
165.7719512967129
 30
0.0
 10
420.1904586044698
 20
165.9280926221632
 30
0.0
 10
420.3594476943862
 20
166.2452566135015
 30
0.0
 10
420.4357047341094
 20
166.4070589539283
 30
0.0
 10
420.640252244748
 20
166.9019358389351
 30
0.0
 10
420.7448110255201
 20
167.2457172737442
 30
0.0
 10
420.8856898804819
 20
167.9538521181633
 30
0.0
 10
420.9209635913244
 20
168.3115790388687
 30
0.0
 10
420.9209635913244
 20
168.6729432368705
 30
0.0
  0
SPLINE
  5
A8
330
1F
100
AcDbEntity
  8
0
  6
Continuous
 62
     7
370
    25
100
AcDbSpline
210
0.0
220
0.0
230
1.0
 70
     8
 71
     3
 72
    39
 73
    35
 74
     0
 42
0.000000001
 43
0.00000001
 40
0.0
 40
0.0
 40
0.0
 40
0.0
 40
0.0265335928189695
 40
0.0530847673847533
 40
0.0797068039866284
 40
0.1064542438033412
 40
0.1333883275500049
 40
0.1606134223066078
 40
0.1880942172880705
 40
0.2157534408858274
 40
0.2435111743287614
 40
0.2713149050764301
 40
0.2992240071488878
 40
0.3273025873726838
 40
0.355616197438036
 40
0.3842318312378117
 40
0.413118842173386
 40
0.4420694379725328
 40
0.4710282282234123
 40
0.5000925132636591
 40
0.5183218880996928
 40
0.5392462535642739
 40
0.5629091334177893
 40
0.5893915182063473
 40
0.6186021956768329
 40
0.6503241552616263
 40
0.6845826274207983
 40
0.721476986668527
 40
0.7611719468429803
 40
0.8038368944232013
 40
0.8489868270256014
 40
0.896520358125099
 40
0.9467234961858768
 40
1.0
 40
1.0
 40
1.0
 40
1.0
 10
573.4209635913244
 20
553.6729432368703
 30
0.0
 10
573.4209458022048
 20
553.6719732120733
 30
0.0
 10
573.4209102121782
 20
553.6700325197193
 30
0.0
 10
573.4206220323152
 20
553.6542085509293
 30
0.0
 10
573.4201618737885
 20
553.6287997092829
 30
0.0
 10
573.4195130308796
 20
553.5927625080734
 30
0.0
 10
573.4186786322172
 20
553.546276204374
 30
0.0
 10
573.4176618013905
 20
553.4888233553959
 30
0.0
 10
573.416461293377
 20
553.4204628085516
 30
0.0
 10
573.4150764390965
 20
553.3413267514184
 30
0.0
 10
573.4135068243401
 20
553.2515444348422
 30
0.0
 10
573.4117482957267
 20
553.1511258895175
 30
0.0
 10
573.4098047494203
 20
553.0403047090026
 30
0.0
 10
573.4076759018833
 20
552.9187968516914
 30
0.0
 10
573.4053615046572
 20
552.7863992677684
 30
0.0
 10
573.4028659112447
 20
552.6430925503939
 30
0.0
 10
573.4001957853577
 20
552.4891926384362
 30
0.0
 10
573.3973346069139
 20
552.3254946085846
 30
0.0
 10
573.394273317382
 20
552.1525604093708
 30
0.0
 10
573.3914599345214
 20
551.9935069956814
 30
0.0
 10
573.3887803277087
 20
551.8461094199141
 30
0.0
 10
573.3861737837761
 20
551.7066022686665
 30
0.0
 10
573.3831268881376
 20
551.5441232227996
 30
0.0
 10
573.3796487996237
 20
551.3571449136256
 30
0.0
 10
573.3757382311055
 20
551.1449091942034
 30
0.0
 10
573.3713639366308
 20
550.9068469259363
 30
0.0
 10
573.3665441241702
 20
550.6422491750054
 30
0.0
 10
573.3612777011456
 20
550.3495608019866
 30
0.0
 10
573.3555624388732
 20
550.0272627268087
 30
0.0
 10
573.349464519299
 20
549.67576773995
 30
0.0
 10
573.3428832884954
 20
549.296842907246
 30
0.0
 10
573.3358333759236
 20
548.8928667385649
 30
0.0
 10
573.3283288214602
 20
548.4639260782888
 30
0.0
 10
573.3232094635764
 20
548.1719549716955
 30
0.0
 10
573.3205737616657
 20
548.0216336187011
 30
0.0
  0
SPLINE
  5
AC
330
1F
100
AcDbEntity
  8
0
  6
Continuous
 62
     7
370
    25
100
AcDbSpline
210
0.0
220
0.0
230
1.0
 70
    24
 71
     3
 72
    25
 73
    21
 74
     0
 42
0.000000001
 43
0.00000001
 40
0.0
 40
0.0
 40
0.0
 40
0.0
 40
0.0250357748959691
 40
0.0500085511818735
 40
0.0749636002336286
 40
0.0999462897983822
 40
0.125001837478854
 40
0.1876468436647847
 40
0.2503548848900846
 40
0.3126962484294633
 40
0.3751008797185268
 40
0.5001026021209513
 40
0.6251688496088317
 40
0.6874869398608556
 40
0.7498679797122427
 40
0.8124691489103487
 40
0.8751324581304808
 40
0.9167761190718694
 40
0.9583287368013987
 40
1.0
 40
1.0
 40
1.0
 40
1.0
 10
573.4209635913244
 20
553.6729432368703
 30
0.0
 10
573.4209635913245
 20
553.6720800341585
 30
0.0
 10
573.4209635913244
 20
553.6703558008493
 30
0.0
 10
573.4209635913243
 20
553.6563431443236
 30
0.0
 10
573.4209635913244
 20
553.6339567510332
 30
0.0
 10
573.4209635913244
 20
553.6023763580471
 30
0.0
 10
573.4209635913243
 20
553.5416524110673
 30
0.0
 10
573.4209635913244
 20
553.4296256477734
 30
0.0
 10
573.4209635913244
 20
553.2355282678607
 30
0.0
 10
573.4209635913244
 20
552.9905194540665
 30
0.0
 10
573.4209635913243
 20
552.5990481614407
 30
0.0
 10
573.4209635913245
 20
551.9945575818917
 30
0.0
 10
573.4209635913243
 20
551.2646903280631
 30
0.0
 10
573.4209635913245
 20
550.6276860837706
 30
0.0
 10
573.4209635913244
 20
550.1276807822094
 30
0.0
 10
573.4209635913242
 20
549.6105105156015
 30
0.0
 10
573.4209635913245
 20
549.1408584464835
 30
0.0
 10
573.4209635913243
 20
548.7277438875883
 30
0.0
 10
573.4209635913244
 20
548.3735312825567
 30
0.0
 10
573.4209635913244
 20
548.1390442696277
 30
0.0
 10
573.4209635913244
 20
548.0216336187011
 30
0.0
  0
SPLINE
  5
AD
330
1F
100
AcDbEntity
  8
0
  6
Continuous
 62
     7
370
    25
100
AcDbSpline
210
0.0
220
0.0
230
1.0
 70
     8
 71
     3
 72
     8
 73
     4
 74
     0
 42
0.000000001
 43
0.00000001
 40
0.0
 40
0.0
 40
0.0
 40
0.0
 40
1.0
 40
1.0
 40
1.0
 40
1.0
 10
573.3895912631597
 20
130.320090449316
 30
0.0
 10
573.4105092713295
 20
130.4367956906382
 30
0.0
 10
573.4209635912922
 20
130.5544135576668
 30
0.0
 10
573.4209635913244
 20
130.6729432363293
 30
0.0
  0
SPLINE
  5
AE
330
1F
100
AcDbEntity
  8
0
  6
Continuous
 62
     7
370
    25
100
AcDbSpline
210
0.0
220
0.0
230
1.0
 70
    24
 71
     3
 72
     8
 73
     4
 74
     0
 42
0.000000001
 43
0.00000001
 40
0.46966185044251
 40
0.46966185044251
 40
0.46966185044251
 40
0.46966185044251
 40
0.471433128523117
 40
0.471433128523117
 40
0.471433128523117
 40
0.471433128523117
 10
573.4209635913244
 20
548.0216336199355
 30
0.0
 10
573.4209635913244
 20
404.7221687736392
 30
0.0
 10
573.4209635913244
 20
265.6059386457949
 30
0.0
 10
573.4209635913244
 20
130.6729432364027
 30
0.0
  0
LWPOLYLINE
  5
AF
330
1F
100
AcDbEntity
  8
0
  6
Continuous
 62
     7
370
    25
100
AcDbPolyline
 90
        3
 70
   128
 43
0.0
 10
573.3291472383
 20
130.0739147154
 10
573.3825341533
 20
130.2827625987
 10
573.4209635913
 20
130.6729432369
  0
LWPOLYLINE
  5
B8
330
1F
100
AcDbEntity
  8
0
  6
Continuous
 62
     7
370
    25
100
AcDbPolyline
 90
       11
 70
   128
 43
0.0
 10
552.4209635913
 20
959.6729432369
 10
553.2031359165
 20
959.4882683458
 10
553.9660485632
 20
958.9387909813
 10
554.69091609
 20
958.0380410997
 10
555.3598898528
 20
956.8081981525
 10
555.9564974973
 20
955.2795449547
 10
556.4660485632
 20
953.4897220213
 10
556.8759962123
 20
951.482800733
 10
557.1762461728
 20
949.3081981525
 10
557.3594052943
 20
947.0194602125
 10
557.4209635913
 20
944.6729432369
  0
LWPOLYLINE
  5
B9
330
1F
100
AcDbEntity
  8
0
  6
Continuous
 62
     7
370
    25
100
AcDbPolyline
 90
       11
 70
   128
 43
0.0
 10
434.4209635913
 20
959.6729432369
 10
433.6387912661
 20
959.4882683458
 10
432.8758786194
 20
958.9387909813
 10
432.1510110926
 20
958.0380410997
 10
431.4820373299
 20
956.8081981525
 10
430.8854296854
 20
955.2795449547
 10
430.3758786194
 20
953.4897220213
 10
429.9659309704
 20
951.482800733
 10
429.6656810098
 20
949.3081981525
 10
429.4825218883
 20
947.0194602125
 10
429.4209635913
 20
944.6729432369
  0
SPLINE
  5
C2
330
1F
100
AcDbEntity
  8
0
  6
Continuous
 62
     7
370
    25
100
AcDbSpline
210
0.0
220
0.0
230
1.0
 70
     8
 71
     3
 72
    42
 73
    38
 74
     0
 42
0.000000001
 43
0.00000001
 40
0.0
 40
0.0
 40
0.0
 40
0.0
 40
0.125000000000005
 40
0.125000000000005
 40
0.1875000000000085
 40
0.1875000000000085
 40
0.2187500000000075
 40
0.2187500000000075
 40
0.2500000000000064
 40
0.2500000000000064
 40
0.3124999999999975
 40
0.3124999999999975
 40
0.3437499999999944
 40
0.3437499999999944
 40
0.3749999999999913
 40
0.3749999999999913
 40
0.4999999999999876
 40
0.4999999999999876
 40
0.5624999999999885
 40
0.5624999999999885
 40
0.6249999999999892
 40
0.6249999999999892
 40
0.6874999999999901
 40
0.6874999999999901
 40
0.7499999999999909
 40
0.7499999999999909
 40
0.8749999999999982
 40
0.8749999999999982
 40
0.9374999999999991
 40
0.9374999999999991
 40
0.9687500000000022
 40
0.9687500000000022
 40
0.9843750000000012
 40
0.9843750000000012
 40
0.9921875000000007
 40
0.9921875000000007
 40
1.0
 40
1.0
 40
1.0
 40
1.0
 10
342.7079143142563
 20
564.2348266483701
 30
0.0
 10
344.4570462660585
 20
564.3966597081213
 30
0.0
 10
346.1561095506051
 20
564.6267183789871
 30
0.0
 10
348.6283299390517
 20
565.1073199799418
 30
0.0
 10
349.4395577105
 20
565.2902749800678
 30
0.0
 10
350.6358602104677
 20
565.60518418065
 30
0.0
 10
351.0303483636159
 20
565.7167704942098
 30
0.0
 10
351.8003341401641
 20
565.9507814393718
 30
0.0
 10
352.1773351166285
 20
566.0735897670686
 30
0.0
 10
353.2848513930423
 20
566.4601303286271
 30
0.0
 10
353.9919366097155
 20
566.741938452842
 30
0.0
 10
355.0065019906144
 20
567.2043166137132
 30
0.0
 10
355.3369986911841
 20
567.3650632098716
 30
0.0
 10
355.9825795136854
 20
567.7005064644225
 30
0.0
 10
356.2986292830666
 20
567.8758071417334
 30
0.0
 10
357.8241161959438
 20
568.7794616719311
 30
0.0
 10
358.8757700296201
 20
569.5900716008312
 30
0.0
 10
360.2311845543205
 20
570.948353455618
 30
0.0
 10
360.6468875423167
 20
571.4270490955778
 30
0.0
 10
361.3929126030876
 20
572.4153101028986
 30
0.0
 10
361.7252938999819
 20
572.926467813413
 30
0.0
 10
362.3165039458883
 20
573.9830565934601
 30
0.0
 10
362.5753079646851
 20
574.5284888965199
 30
0.0
 10
363.024978842591
 20
575.6541479510595
 30
0.0
 10
363.2159970018756
 20
576.2357898946595
 30
0.0
 10
363.6882926859868
 20
578.0101238605615
 30
0.0
 10
363.8728733948807
 20
579.2386877157643
 30
0.0
 10
363.9895758126004
 20
581.150594093247
 30
0.0
 10
364.001496137272
 20
581.7998826039229
 30
0.0
 10
363.9824471423897
 20
582.7849882699857
 30
0.0
 10
363.9699585463112
 20
583.1154670361086
 30
0.0
 10
363.9424530939774
 20
583.6143658535904
 30
0.0
 10
363.9318203952163
 20
583.7812162290293
 30
0.0
 10
363.9137341784726
 20
584.0321994222187
 30
0.0
 10
363.9073493683904
 20
584.1159778572633
 30
0.0
 10
363.893876347606
 20
584.2837698369007
 30
0.0
 10
363.8867093059256
 20
584.3686625529701
 30
0.0
 10
363.8793902894826
 20
584.4514867678544
 30
0.0
  0
SPLINE
  5
C6
330
1F
100
AcDbEntity
  8
0
  6
Continuous
 62
     7
370
    25
100
AcDbSpline
210
0.0
220
0.0
230
1.0
 70
     8
 71
     3
 72
     8
 73
     4
 74
     0
 42
0.000000001
 43
0.00000001
 40
0.0
 40
0.0
 40
0.0
 40
0.0
 40
1.0
 40
1.0
 40
1.0
 40
1.0
 10
342.7079143142564
 20
564.2348266483702
 30
0.0
 10
340.560157376539
 20
564.0361120365454
 30
0.0
 10
338.4072088322456
 20
563.9460546723442
 30
0.0
 10
336.2508565048385
 20
563.9272364706726
 30
0.0
  0
LWPOLYLINE
  5
D3
330
1F
100
AcDbEntity
  8
0
  6
Continuous
 62
     8
370
    25
100
AcDbPolyline
 90
        7
 70
   128
 43
0.0
 10
43.8166635064
 20
553.8704204493
 10
43.1485931824
 20
553.9897680788
 10
42.4952320194
 20
554.3564342241
 10
41.8731018747
 20
554.9611468225
 10
41.2979348516
 20
555.7886142164
 10
40.7842754745
 20
556.817911841
 10
40.4029828278
 20
557.8407820229
  0
LWPOLYLINE
  5
D4
330
1F
100
AcDbEntity
  8
0
  6
Continuous
 62
     8
370
    25
100
AcDbPolyline
 90
        7
 70
   128
 43
0.0
 10
17.7743356207
 20
557.6433048105
 10
18.1556282673
 20
556.6204346285
 10
18.6692876444
 20
555.5911370039
 10
19.2444546675
 20
554.76366961
 10
19.8665848123
 20
554.1589570116
 10
20.5199459752
 20
553.7922908663
 10
21.1880162992
 20
553.6729432369
  0
SPLINE
  5
D8
330
1F
100
AcDbEntity
  8
0
  6
Continuous
 62
     8
370
    25
100
AcDbSpline
210
0.0
220
0.0
230
1.0
 70
     8
 71
     3
 72
    27
 73
    23
 74
     0
 42
0.000000001
 43
0.00000001
 40
0.0
 40
0.0
 40
0.0
 40
0.0
 40
0.0471625386251385
 40
0.0947076158479061
 40
0.1425210897477811
 40
0.1907412724612737
 40
0.2439371701855078
 40
0.2975108725507629
 40
0.3522750162146826
 40
0.4074518928178832
 40
0.4601010100981823
 40
0.5131158439185358
 40
0.5672843662926437
 40
0.6218502951699162
 40
0.6744900308274359
 40
0.7274944708055541
 40
0.7816528361226324
 40
0.8362105063882475
 40
0.8888608777689301
 40
0.9418786624555999
 40
0.996051289312676
 40
1.0
 40
1.0
 40
1.0
 40
1.0
 10
100.9220195521587
 20
548.1504238094703
 30
0.0
 10
96.41971749970985
 20
548.1613025892136
 30
0.0
 10
87.37859491290992
 20
548.1831483872317
 30
0.0
 10
73.84388804657301
 20
548.2194288999286
 30
0.0
 10
60.35842621178033
 20
548.2567908316444
 30
0.0
 10
46.57836060264386
 20
548.2963407626416
 30
0.0
 10
32.60963240565582
 20
548.338292455263
 30
0.0
 10
18.53461328182027
 20
548.3819310713005
 30
0.0
 10
4.880579622793202
 20
548.4256906760249
 30
0.0
 10
-7.989576297338486
 20
548.4684274600969
 30
0.0
 10
-19.94732211561168
 20
548.508752112617
 30
0.0
 10
-30.99113856039365
 20
548.5473819082129
 30
0.0
 10
-41.22719481677917
 20
548.5834163410187
 30
0.0
 10
-50.4192792266937
 20
548.6166769239541
 30
0.0
 10
-58.468971705258
 20
548.6461897919447
 30
0.0
 10
-65.39791593076156
 20
548.6717860149716
 30
0.0
 10
-71.22315326768336
 20
548.6938474353798
 30
0.0
 10
-75.78419766547468
 20
548.7110664262295
 30
0.0
 10
-79.10460242845241
 20
548.7238573233188
 30
0.0
 10
-81.01866356586768
 20
548.7312689757291
 30
0.0
 10
-81.83406991144099
 20
548.734417962438
 30
0.0
 10
-81.6154559763328
 20
548.7335730214356
 30
0.0
 10
-81.60060354487764
 20
548.7335156169142
 30
0.0
  0
LINE
  5
DB
330
1F
100
AcDbEntity
  8
0
  6
Continuous
 62
     7
370
    25
100
AcDbLine
 10
-76.0881964208
 20
560.3288080708
 30
0.0
 11
-76.2225541739
 21
556.8230063805
 31
0.0
  0
LINE
  5
DC
330
1F
100
AcDbEntity
  8
0
  6
Continuous
 62
     7
370
    25
100
AcDbLine
 10
270.6489785524
 20
553.8513206397
 30
0.0
 11
270.4599610803
 21
559.8484588565
 31
0.0
  0
LINE
  5
DD
330
1F
100
AcDbEntity
  8
0
  6
Continuous
 62
     7
370
    25
100
AcDbLine
 10
-16.6035960132
 20
557.3432931462
 30
0.0
 11
-16.493536216
 21
553.8513206397
 31
0.0
  0
LINE
  5
DE
330
1F
100
AcDbEntity
  8
0
  6
Continuous
 62
     7
370
    25
100
AcDbLine
 10
332.3596976999
 20
562.6729432369
 30
0.0
 11
332.3596976999
 21
553.6729432369
 31
0.0
  0
LINE
  5
DF
330
1F
100
AcDbEntity
  8
0
  6
Continuous
 62
     7
370
    25
100
AcDbLine
 10
-80.4675849514
 20
589.0071886416
 30
0.0
 11
-81.9480962977
 21
560.2776694993
 31
0.0
  0
LINE
  5
E0
330
1F
100
AcDbEntity
  8
0
  6
Continuous
 62
     7
370
    25
100
AcDbLine
 10
379.4862594969
 20
553.6729432369
 30
0.0
 11
379.4862594969
 21
562.4669997822
 31
0.0
  0
LINE
  5
E1
330
1F
100
AcDbEntity
  8
0
  6
Continuous
 62
     7
370
    25
100
AcDbLine
 10
332.9862594969
 20
562.4669997822
 30
0.0
 11
332.9862594969
 21
553.6729432369
 31
0.0
  0
LINE
  5
E2
330
1F
100
AcDbEntity
  8
0
  6
Continuous
 62
     7
370
    25
100
AcDbLine
 10
351.232583821
 20
563.4669997822
 30
0.0
 11
351.232583821
 21
565.6544827386
 31
0.0
  0
LINE
  5
E3
330
1F
100
AcDbEntity
  8
0
  6
Continuous
 62
     7
370
    25
100
AcDbLine
 10
344.232583821
 20
564.4319618707
 30
0.0
 11
344.232583821
 21
563.4669997822
 31
0.0
  0
LINE
  5
E4
330
1F
100
AcDbEntity
  8
0
  6
Continuous
 62
     7
370
    25
100
AcDbLine
 10
320.4710337447
 20
560.2848988757
 30
0.0
 11
-76.2225541739
 21
556.8230063805
 31
0.0
  0
LINE
  5
E5
330
1F
100
AcDbEntity
  8
0
  6
Continuous
 62
     7
370
    25
100
AcDbLine
 10
320.3606054091
 20
563.7885643502
 30
0.0
 11
320.4710337447
 21
560.2848988757
 31
0.0
  0
LINE
  5
E6
330
1F
100
AcDbEntity
  8
0
  6
Continuous
 62
     7
370
    25
100
AcDbLine
 10
215.0442280454
 20
555.3647007672
 30
0.0
 11
189.9766378847
 21
555.145939222
 31
0.0
  0
LINE
  5
E7
330
1F
100
AcDbEntity
  8
0
  6
Continuous
 62
     7
370
    25
100
AcDbLine
 10
43.8655006898
 20
553.870846645
 30
0.0
 11
21.1880162992
 21
553.6729432369
 31
0.0
  0
LINE
  5
E8
330
1F
100
AcDbEntity
  8
0
  6
Continuous
 62
     7
370
    25
100
AcDbLine
 10
100.5645621391
 20
553.8513206397
 30
0.0
 11
153.5908801974
 21
553.8513206397
 31
0.0
  0
LINE
  5
E9
330
1F
100
AcDbEntity
  8
0
  6
Continuous
 62
     7
370
    25
100
AcDbLine
 10
351.232583821
 20
563.6729432369
 30
0.0
 11
377.8596976999
 21
563.6729432369
 31
0.0
  0
LINE
  5
EA
330
1F
100
AcDbEntity
  8
0
  6
Continuous
 62
     7
370
    25
100
AcDbLine
 10
333.3596976999
 20
563.6729432369
 30
0.0
 11
344.232583821
 21
563.6729432369
 31
0.0
  0
LINE
  5
EB
330
1F
100
AcDbEntity
  8
0
  6
Continuous
 62
     7
370
    25
100
AcDbLine
 10
554.4745825079
 20
563.6729432369
 30
0.0
 11
556.420819067
 21
925.6729432369
 31
0.0
  0
LINE
  5
EC
330
1F
100
AcDbEntity
  8
0
  6
Continuous
 62
     7
370
    25
100
AcDbLine
 10
432.3673446748
 20
563.6729432369
 30
0.0
 11
554.4745825079
 21
563.6729432369
 31
0.0
  0
LINE
  5
ED
330
1F
100
AcDbEntity
  8
0
  6
Continuous
 62
     7
370
    25
100
AcDbLine
 10
430.4211081157
 20
925.6729432369
 30
0.0
 11
432.3673446748
 21
563.6729432369
 31
0.0
  0
LINE
  5
EE
330
1F
100
AcDbEntity
  8
0
  6
Continuous
 62
     7
370
    25
100
AcDbLine
 10
566.4209635913
 20
925.6729432369
 30
0.0
 11
564.4744379856
 21
563.619180573
 31
0.0
  0
LINE
  5
EF
330
1F
100
AcDbEntity
  8
0
  6
Continuous
 62
     7
370
    25
100
AcDbLine
 10
564.4744379856
 20
563.619180573
 30
0.0
 11
554.4745825079
 21
563.6729432369
 31
0.0
  0
LINE
  5
F0
330
1F
100
AcDbEntity
  8
0
  6
Continuous
 62
     7
370
    25
100
AcDbLine
 10
432.3673446748
 20
563.6729432369
 30
0.0
 11
422.367489197
 21
563.619180573
 31
0.0
  0
LINE
  5
F1
330
1F
100
AcDbEntity
  8
0
  6
Continuous
 62
     7
370
    25
100
AcDbLine
 10
422.367489197
 20
563.619180573
 30
0.0
 11
420.4209635913
 21
925.6729432369
 31
0.0
  0
LINE
  5
F2
330
1F
100
AcDbEntity
  8
0
  6
Continuous
 62
     7
370
    25
100
AcDbLine
 10
554.4745825079
 20
563.6729432369
 30
0.0
 11
554.4745825079
 21
553.6729432369
 31
0.0
  0
LINE
  5
F3
330
1F
100
AcDbEntity
  8
0
  6
Continuous
 62
     7
370
    25
100
AcDbLine
 10
432.3673446748
 20
563.6729432369
 30
0.0
 11
432.3673446748
 21
553.6729432369
 31
0.0
  0
LINE
  5
F4
330
1F
100
AcDbEntity
  8
0
  6
Continuous
 62
     7
370
    25
100
AcDbLine
 10
100.9220195522
 20
548.1504238095
 30
0.0
 11
100.9209635922
 21
553.6729432369
 31
0.0
  0
LINE
  5
F5
330
1F
100
AcDbEntity
  8
0
  6
Continuous
 62
     7
370
    25
100
AcDbLine
 10
128.4209635913
 20
128.6729432369
 30
0.0
 11
571.4209635913
 21
128.6729432369
 31
0.0
  0
LINE
  5
F6
330
1F
100
AcDbEntity
  8
0
  6
Continuous
 62
     7
370
    25
100
AcDbLine
 10
100.9209635922
 20
553.6729432369
 30
0.0
 11
573.4209635913
 21
553.6729432369
 31
0.0
  0
LINE
  5
F7
330
1F
100
AcDbEntity
  8
0
  6
Continuous
 62
     7
370
    25
100
AcDbLine
 10
573.3205737647
 20
548.0216336199
 30
0.0
 11
573.4209635913
 21
548.0216336199
 31
0.0
  0
LINE
  5
F8
330
1F
100
AcDbEntity
  8
0
  6
Continuous
 62
     7
370
    25
100
AcDbLine
 10
419.4209635913
 20
925.6729432369
 30
0.0
 11
567.4209635913
 21
925.6729432369
 31
0.0
  0
LINE
  5
F9
330
1F
100
AcDbEntity
  8
0
  6
Continuous
 62
     7
370
    25
100
AcDbLine
 10
429.4209635913
 20
944.6729432369
 30
0.0
 11
429.4209635913
 21
925.6729432369
 31
0.0
  0
LINE
  5
FA
330
1F
100
AcDbEntity
  8
0
  6
Continuous
 62
     7
370
    25
100
AcDbLine
 10
567.4209635913
 20
944.6729432369
 30
0.0
 11
419.4209635913
 21
944.6729432369
 31
0.0
  0
LINE
  5
FB
330
1F
100
AcDbEntity
  8
0
  6
Continuous
 62
     7
370
    25
100
AcDbLine
 10
557.4209635913
 20
925.6729432369
 30
0.0
 11
557.4209635913
 21
944.6729432369
 31
0.0
  0
LINE
  5
FC
330
1F
100
AcDbEntity
  8
0
  6
Continuous
 62
     7
370
    25
100
AcDbLine
 10
419.4209635913
 20
925.6729432369
 30
0.0
 11
419.4209635913
 21
944.6729432369
 31
0.0
  0
LINE
  5
FD
330
1F
100
AcDbEntity
  8
0
  6
Continuous
 62
     7
370
    25
100
AcDbLine
 10
434.4209635913
 20
959.6729432369
 30
0.0
 11
552.4209635913
 21
959.6729432369
 31
0.0
  0
LINE
  5
FE
330
1F
100
AcDbEntity
  8
0
  6
Continuous
 62
     7
370
    25
100
AcDbLine
 10
567.4209635913
 20
944.6729432369
 30
0.0
 11
567.4209635913
 21
925.6729432369
 31
0.0
  0
LINE
  5
FF
330
1F
100
AcDbEntity
  8
0
  6
Continuous
 62
     7
370
    25
100
AcDbLine
 10
342.7079143143
 20
564.2348266484
 30
0.0
 11
341.9414685688
 21
606.0531031069
 31
0.0
  0
LINE
  5
100
330
1F
100
AcDbEntity
  8
0
  6
Continuous
 62
     7
370
    25
100
AcDbLine
 10
362.7589571576
 20
597.1306486748
 30
0.0
 11
-80.4675849514
 21
589.0071886416
 31
0.0
  0
LINE
  5
101
330
1F
100
AcDbEntity
  8
0
  6
Continuous
 62
     7
370
    25
100
AcDbLine
 10
363.8793902895
 20
584.4514867679
 30
0.0
 11
362.7589571576
 21
597.1306486748
 31
0.0
  0
LINE
  5
102
330
1F
100
AcDbEntity
  8
0
  6
Continuous
 62
     7
370
    25
100
AcDbLine
 10
-81.9480962977
 20
560.2776694993
 30
0.0
 11
336.2508565048
 21
563.9272364707
 31
0.0
  0
LINE
  5
103
330
1F
100
AcDbEntity
  8
0
  6
Continuous
 62
     7
370
    25
100
AcDbLine
 10
102.2105951626
 20
561.8847980522
 30
0.0
 11
101.4818522834
 21
601.6459571061
 31
0.0
  0
LINE
  5
104
330
1F
100
AcDbEntity
  8
0
  6
Continuous
 62
     7
370
    25
100
AcDbLine
 10
-70.664086003
 20
598.4908648075
 30
0.0
 11
352.6145252332
 21
606.248718985
 31
0.0
  0
LINE
  5
105
330
1F
100
AcDbEntity
  8
0
  6
Continuous
 62
     7
370
    25
100
AcDbLine
 10
333.9862594969
 20
563.4669997822
 30
0.0
 11
378.4862594969
 21
563.4669997822
 31
0.0
  0
LINE
  5
106
330
1F
100
AcDbEntity
  8
0
  6
Continuous
 62
     8
370
    25
100
AcDbLine
 10
290.464390146
 20
560.0230348641
 30
0.0
 11
290.3539618105
 21
563.5267003387
 31
0.0
  0
LINE
  5
107
330
1F
100
AcDbEntity
  8
0
  6
Continuous
 62
     8
370
    25
100
AcDbLine
 10
100.3118856859
 20
561.8682282656
 30
0.0
 11
100.5645621391
 21
553.8513206397
 31
0.0
  0
LINE
  5
108
330
1F
100
AcDbEntity
  8
0
  6
Continuous
 62
     8
370
    25
100
AcDbLine
 10
215.0099570034
 20
555.3644016883
 30
0.0
 11
214.9750508614
 21
559.3642493806
 31
0.0
  0
LINE
  5
109
330
1F
100
AcDbEntity
  8
0
  6
Continuous
 62
     8
370
    25
100
AcDbLine
 10
189.9760027848
 20
559.1460859931
 30
0.0
 11
190.0109089268
 21
555.1462383009
 31
0.0
  0
LINE
  5
10A
330
1F
100
AcDbEntity
  8
0
  6
Continuous
 62
     8
370
    25
100
AcDbLine
 10
153.4340510457
 20
558.8271892115
 30
0.0
 11
153.5908801974
 21
553.8513206397
 31
0.0
  0
LINE
  5
10B
330
1F
100
AcDbEntity
  8
0
  6
Continuous
 62
     8
370
    25
100
AcDbLine
 10
333.0076956034
 20
562.6729432369
 30
0.0
 11
332.3596976999
 21
562.6729432369
 31
0.0
  0
LINE
  5
10C
330
1F
100
AcDbEntity
  8
0
  6
Continuous
 62
     8
370
    25
100
AcDbLine
 10
379.4862594969
 20
562.4669997822
 30
0.0
 11
332.9862594969
 21
562.4669997822
 31
0.0
  0
ARC
  5
10D
330
1F
100
AcDbEntity
  8
0
  6
Continuous
 62
     7
370
    25
100
AcDbCircle
 10
214.957835344
 20
565.2643238055
 30
0.0
 40
9.900000000000594
100
AcDbArc
 50
270.5
 51
323.9189302097
  0
ARC
  5
10E
330
1F
100
AcDbEntity
  8
0
  6
Continuous
 62
     7
370
    25
100
AcDbCircle
 10
189.8902451833
 20
565.0455622604
 30
0.0
 40
9.899999999999137
100
AcDbArc
 50
217.0810697903
 51
270.5
  0
ARC
  5
10F
330
1F
100
AcDbEntity
  8
0
  6
Continuous
 62
     7
370
    25
100
AcDbCircle
 10
43.7791079884
 20
563.7704696833
 30
0.0
 40
9.900000000000725
100
AcDbArc
 50
270.5
 51
323.9189302097
  0
ARC
  5
110
330
1F
100
AcDbEntity
  8
0
  6
Continuous
 62
     7
370
    25
100
AcDbCircle
 10
21.0819186971
 20
563.5723943131
 30
0.0
 40
9.899999999999947
100
AcDbArc
 50
217.0810697903
 51
270.5
  0
ARC
  5
111
330
1F
100
AcDbEntity
  8
0
  6
Continuous
 62
     7
370
    25
100
AcDbCircle
 10
333.3596976999
 20
562.6729432369
 30
0.0
 40
1.0
100
AcDbArc
 50
90.0
 51
180.0
  0
ARC
  5
112
330
1F
100
AcDbEntity
  8
0
  6
Continuous
 62
     7
370
    25
100
AcDbCircle
 10
377.8596976999
 20
562.6729432369
 30
0.0
 40
1.000000000001499
100
AcDbArc
 50
52.5662345915
 51
90.0
  0
ARC
  5
113
330
1F
100
AcDbEntity
  8
0
  6
Continuous
 62
     7
370
    25
100
AcDbCircle
 10
-76.6461123056
 20
548.6729432376
 30
0.0
 40
4.999999999292185
100
AcDbArc
 50
89.9999829083
 51
179.3801617269
  0
ARC
  5
114
330
1F
100
AcDbEntity
  8
0
  6
Continuous
 62
     7
370
    25
100
AcDbCircle
 10
-70.480836689
 20
588.492543964
 30
0.0
 40
10.00000000000007
100
AcDbArc
 50
91.05
 51
177.05
  0
ARC
  5
115
330
1F
100
AcDbEntity
  8
0
  6
Continuous
 62
     7
370
    25
100
AcDbCircle
 10
333.9862594969
 20
562.4669997822
 30
0.0
 40
1.000000000000114
100
AcDbArc
 50
90.0
 51
180.0
  0
ARC
  5
116
330
1F
100
AcDbEntity
  8
0
  6
Continuous
 62
     7
370
    25
100
AcDbCircle
 10
378.4862594969
 20
562.4669997822
 30
0.0
 40
1.0
100
AcDbArc
 50
0.0
 51
90.0
  0
ARC
  5
117
330
1F
100
AcDbEntity
  8
0
  6
Continuous
 62
     7
370
    25
100
AcDbCircle
 10
347.732583821
 20
584.1555479543
 30
0.0
 40
16.99999999999925
100
AcDbArc
 50
341.6801768988
 51
23.6698990374
  0
ARC
  5
118
330
1F
100
AcDbEntity
  8
0
  6
Continuous
 62
     7
370
    25
100
AcDbCircle
 10
554.4745825079
 20
563.6729432369
 30
0.0
 40
10.00000000000012
100
AcDbArc
 50
270.0
 51
359.6919611426
  0
ARC
  5
119
330
1F
100
AcDbEntity
  8
0
  6
Continuous
 62
     7
370
    25
100
AcDbCircle
 10
432.3673446748
 20
563.6729432369
 30
0.0
 40
10.00000000000012
100
AcDbArc
 50
180.3080388574
 51
270.0
  0
ARC
  5
11A
330
1F
100
AcDbEntity
  8
0
  6
Continuous
 62
     7
370
    25
100
AcDbCircle
 10
552.4209635913
 20
944.6729432369
 30
0.0
 40
15.00000000000011
100
AcDbArc
 50
0.0
 51
90.0
  0
ARC
  5
11B
330
1F
100
AcDbEntity
  8
0
  6
Continuous
 62
     7
370
    25
100
AcDbCircle
 10
434.4209635913
 20
944.6729432369
 30
0.0
 40
14.99999999999994
100
AcDbArc
 50
90.0
 51
180.0
  0
ARC
  5
11C
330
1F
100
AcDbEntity
  8
0
  6
Continuous
 62
     7
370
    25
100
AcDbCircle
 10
352.7977745471
 20
596.2503981415
 30
0.0
 40
9.999999999999957
100
AcDbArc
 50
5.05
 51
91.05
  0
SPLINE
  5
1C4
330
23
100
AcDbEntity
 67
     1
  8
0
  6
Continuous
 62
     7
370
    25
100
AcDbSpline
210
0.0
220
0.0
230
1.0
 70
    24
 71
     3
 72
    15
 73
    11
 74
     0
 42
0.000000001
 43
0.00000001
 40
0.0
 40
0.0
 40
0.0
 40
0.0
 40
0.1383883996348683
 40
0.2772190464434355
 40
0.4153792814232439
 40
0.5540188671760288
 40
0.692730017791652
 40
0.8308384961609772
 40
0.9695713259991798
 40
0.9999999999999999
 40
0.9999999999999999
 40
0.9999999999999999
 40
0.9999999999999999
 10
573.4209635913244
 20
-713.0177101696638
 30
0.0
 10
573.4209635913244
 20
-713.3719426559916
 30
0.0
 10
573.4209635913242
 20
-714.0815396477781
 30
0.0
 10
573.4209635913246
 20
-715.096794882017
 30
0.0
 10
573.4209635913243
 20
-716.0191737217913
 30
0.0
 10
573.4209635913243
 20
-716.8048024223594
 30
0.0
 10
573.4209635913245
 20
-717.4245069347123
 30
0.0
 10
573.4209635913245
 20
-717.826860870296
 30
0.0
 10
573.4209635913243
 20
-718.0164689514103
 30
0.0
 10
573.4209635913244
 20
-717.9985667032803
 30
0.0
 10
573.4209635913244
 20
-717.9953464571848
 30
0.0
  0
SPLINE
  5
1C6
330
23
100
AcDbEntity
 67
     1
  8
0
  6
Continuous
 62
     7
370
    25
100
AcDbSpline
210
0.0
220
0.0
230
1.0
 70
    24
 71
     3
 72
    15
 73
    11
 74
     0
 42
0.000000001
 43
0.00000001
 40
0.0
 40
0.0
 40
0.0
 40
0.0
 40
0.0305371097677144
 40
0.1693481485007017
 40
0.3074933823548437
 40
0.4461292020957829
 40
0.5848429164253082
 40
0.7229644605450717
 40
0.8617185930277756
 40
1.0
 40
1.0
 40
1.0
 40
1.0
 10
573.4209635913244
 20
-354.4393241105132
 30
0.0
 10
573.4209635913244
 20
-354.4360948110055
 30
0.0
 10
573.4209635913244
 20
-354.4181862434713
 30
0.0
 10
573.4209635913244
 20
-354.6081004238735
 30
0.0
 10
573.4209635913244
 20
-355.0108122079519
 30
0.0
 10
573.4209635913243
 20
-355.6308092627443
 30
0.0
 10
573.4209635913245
 20
-356.4165777238062
 30
0.0
 10
573.4209635913243
 20
-357.3390301042822
 30
0.0
 10
573.4209635913244
 20
-358.353808894454
 30
0.0
 10
573.4209635913245
 20
-359.0629337973728
 30
0.0
 10
573.4209635913244
 20
-359.4168912336192
 30
0.0
  0
SPLINE
  5
1C7
330
23
100
AcDbEntity
 67
     1
  8
0
  6
Continuous
 62
     7
370
    25
100
AcDbSpline
210
0.0
220
0.0
230
1.0
 70
     8
 71
     3
 72
    11
 73
     7
 74
     0
 42
0.000000001
 43
0.00000001
 40
0.0
 40
0.0
 40
0.0
 40
0.0
 40
0.2892618062437806
 40
0.5867715164727088
 40
0.8760860456583043
 40
1.0
 40
1.0
 40
1.0
 40
1.0
 10
488.5442672347621
 20
-536.2173007016415
 30
0.0
 10
488.349494905098
 20
-534.2872762075193
 30
0.0
 10
487.9543965797159
 20
-530.3721952158343
 30
0.0
 10
487.4945655444518
 20
-524.7258089317666
 30
0.0
 10
487.1180007683396
 20
-520.3167376806047
 30
0.0
 10
486.8252435352755
 20
-518.0940477179935
 30
0.0
 10
486.7374550408779
 20
-517.4275343639484
 30
0.0
  0
SPLINE
  5
1C8
330
23
100
AcDbEntity
 67
     1
  8
0
  6
Continuous
 62
     7
370
    25
100
AcDbSpline
210
0.0
220
0.0
230
1.0
 70
     8
 71
     3
 72
    11
 73
     7
 74
     0
 42
0.000000001
 43
0.00000001
 40
0.0
 40
0.0
 40
0.0
 40
0.0
 40
0.1465504547886599
 40
0.4334778012640623
 40
0.7130620802604278
 40
1.0
 40
1.0
 40
1.0
 40
1.0
 10
486.7620665209967
 20
-554.904981612285
 30
0.0
 10
486.8614101586274
 20
-554.109204961885
 30
0.0
 10
487.1552561359174
 20
-551.7553977818918
 30
0.0
 10
487.5279262360507
 20
-547.350405320408
 30
0.0
 10
487.9728272689565
 20
-541.8721460991026
 30
0.0
 10
488.3521460196115
 20
-538.1184903878037
 30
0.0
 10
488.5442672347624
 20
-536.2173007016415
 30
0.0
  0
CIRCLE
  5
1DA
330
23
100
AcDbEntity
 67
     1
  8
0
  6
Continuous
 62
     7
370
    25
100
AcDbCircle
 10
493.4209635913
 20
-536.2173007016
 30
0.0
 40
23.00000000000028
  0
CIRCLE
  5
1DF
330
23
100
AcDbEntity
 67
     1
  8
0
  6
Continuous
 62
     7
370
    25
100
AcDbCircle
 10
493.4209635913
 20
-536.2173007016
 30
0.0
 40
19.99999999999972
  0
SPLINE
  5
1F5
330
23
100
AcDbEntity
 67
     1
  8
0
  6
Continuous
 62
     7
370
    25
100
AcDbSpline
210
0.0
220
0.0
230
1.0
 70
     8
 71
     3
 72
    10
 73
     6
 74
     0
 42
0.000000001
 43
0.00000001
 40
0.0
 40
0.0
 40
0.0
 40
0.0
 40
0.0067411770746105
 40
0.5309647611948094
 40
1.0
 40
1.0
 40
1.0
 40
1.0
 10
360.1279166934407
 20
-668.2173007016416
 30
0.0
 10
360.1290111167874
 20
-668.2157713930553
 30
0.0
 10
360.2152127140029
 20
-668.0953163212947
 30
0.0
 10
360.3543463900938
 20
-667.8638939096156
 30
0.0
 10
360.3778719229081
 20
-667.6617918638669
 30
0.0
 10
360.3889811158465
 20
-667.5663555293459
 30
0.0
  0
SPLINE
  5
1F6
330
23
100
AcDbEntity
 67
     1
  8
0
  6
Continuous
 62
     7
370
    25
100
AcDbSpline
210
0.0
220
0.0
230
1.0
 70
     8
 71
     3
 72
    10
 73
     6
 74
     0
 42
0.000000001
 43
0.00000001
 40
0.0
 40
0.0
 40
0.0
 40
0.0
 40
0.4690352388052005
 40
0.9932588229253344
 40
1.0
 40
1.0
 40
1.0
 40
1.0
 10
360.3889811158466
 20
-404.8682458739374
 30
0.0
 10
360.3778719229087
 20
-404.7728095394171
 30
0.0
 10
360.3543463900951
 20
-404.5707074936699
 30
0.0
 10
360.2152127139986
 20
-404.339285081982
 30
0.0
 10
360.1290111167873
 20
-404.2188300102279
 30
0.0
 10
360.1279166934406
 20
-404.2173007016417
 30
0.0
  0
SPLINE
  5
201
330
23
100
AcDbEntity
 67
     1
  8
0
  6
Continuous
 62
     7
370
    25
100
AcDbSpline
210
0.0
220
0.0
230
1.0
 70
     8
 71
     3
 72
    42
 73
    38
 74
     0
 42
0.000000001
 43
0.00000001
 40
0.0
 40
0.0
 40
0.0
 40
0.0
 40
0.1250000000000306
 40
0.1250000000000306
 40
0.187500000000046
 40
0.187500000000046
 40
0.2187500000000528
 40
0.2187500000000528
 40
0.2500000000000596
 40
0.2500000000000596
 40
0.3125000000000657
 40
0.3125000000000657
 40
0.3437500000000657
 40
0.3437500000000657
 40
0.3750000000000658
 40
0.3750000000000658
 40
0.5000000000000544
 40
0.5000000000000544
 40
0.562500000000048
 40
0.562500000000048
 40
0.6250000000000415
 40
0.6250000000000415
 40
0.6875000000000351
 40
0.6875000000000351
 40
0.7500000000000286
 40
0.7500000000000286
 40
0.8750000000000187
 40
0.8750000000000187
 40
0.9375000000000094
 40
0.9375000000000094
 40
0.9687500000000049
 40
0.9687500000000049
 40
0.9843750000000026
 40
0.9843750000000026
 40
0.9921875000000013
 40
0.9921875000000013
 40
1.0
 40
1.0
 40
1.0
 40
1.0
 10
342.7079143142561
 20
-351.7925908433604
 30
0.0
 10
344.4570462660583
 20
-351.8016640683484
 30
0.0
 10
346.1561095506049
 20
-352.0138274241123
 30
0.0
 10
348.6283299390517
 20
-352.6132147651631
 30
0.0
 10
349.4395577104999
 20
-352.8603314651331
 30
0.0
 10
350.6358602104677
 20
-353.3029378949823
 30
0.0
 10
351.0303483636159
 20
-353.462293360356
 30
0.0
 10
351.8003341401642
 20
-353.7996332246748
 30
0.0
 10
352.1773351166282
 20
-353.9781545206636
 30
0.0
 10
353.2848513930421
 20
-354.5419366221905
 30
0.0
 10
353.9919366097153
 20
-354.9553449527496
 30
0.0
 10
355.0065019906143
 20
-355.6279442108554
 30
0.0
 10
355.3369986911841
 20
-355.8609106303011
 30
0.0
 10
355.9825795136853
 20
-356.3439379022591
 30
0.0
 10
356.2986292830664
 20
-356.5948514810744
 30
0.0
 10
357.8241161959436
 20
-357.8775789616766
 30
0.0
 10
358.8757700296198
 20
-358.9947002895788
 30
0.0
 10
360.2311845543203
 20
-360.7701171297628
 30
0.0
 10
360.6468875423166
 20
-361.3812861306241
 30
0.0
 10
361.3929126030877
 20
-362.6093023609876
 30
0.0
 10
361.7252938999815
 20
-363.2283663981635
 30
0.0
 10
362.3165039458879
 20
-364.4727119484924
 30
0.0
 10
362.5753079646851
 20
-365.098004306283
 30
0.0
 10
363.0249788425909
 20
-366.3516624523423
 30
0.0
 10
363.2159970018755
 20
-366.9814163093565
 30
0.0
 10
363.6882926859869
 20
-368.8466950422659
 30
0.0
 10
363.8728733948809
 20
-370.06579546227
 30
0.0
 10
363.9895758126007
 20
-371.851439002638
 30
0.0
 10
364.0014961372721
 20
-372.4398493336454
 30
0.0
 10
363.98244714239
 20
-373.3056663187425
 30
0.0
 10
363.9699585463109
 20
-373.5917106150869
 30
0.0
 10
363.9424530939773
 20
-374.0169284383763
 30
0.0
 10
363.9318203952165
 20
-374.1580434729456
 30
0.0
 10
363.913734178473
 20
-374.3686775812806
 30
0.0
 10
363.9073493683907
 20
-374.4387154839156
 30
0.0
 10
363.8938763476073
 20
-374.5784447230223
 30
0.0
 10
363.8867093059324
 20
-374.6488300342598
 30
0.0
 10
363.8793902894826
 20
-374.7173007016416
 30
0.0
  0
SPLINE
  5
204
330
23
100
AcDbEntity
 67
     1
  8
0
  6
Continuous
 62
     7
370
    25
100
AcDbSpline
210
0.0
220
0.0
230
1.0
 70
     8
 71
     3
 72
    42
 73
    38
 74
     0
 42
0.000000001
 43
0.00000001
 40
0.0
 40
0.0
 40
0.0
 40
0.0
 40
0.125000000000005
 40
0.125000000000005
 40
0.1875000000000085
 40
0.1875000000000085
 40
0.2187500000000075
 40
0.2187500000000075
 40
0.2500000000000064
 40
0.2500000000000064
 40
0.3124999999999975
 40
0.3124999999999975
 40
0.3437499999999944
 40
0.3437499999999944
 40
0.3749999999999913
 40
0.3749999999999913
 40
0.4999999999999876
 40
0.4999999999999876
 40
0.5624999999999885
 40
0.5624999999999885
 40
0.6249999999999892
 40
0.6249999999999892
 40
0.6874999999999901
 40
0.6874999999999901
 40
0.7499999999999909
 40
0.7499999999999909
 40
0.8749999999999982
 40
0.8749999999999982
 40
0.9374999999999991
 40
0.9374999999999991
 40
0.9687500000000022
 40
0.9687500000000022
 40
0.9843750000000012
 40
0.9843750000000012
 40
0.9921875000000007
 40
0.9921875000000007
 40
1.0
 40
1.0
 40
1.0
 40
1.0
 10
342.7079143142563
 20
-720.6420105599228
 30
0.0
 10
344.4570462660585
 20
-720.6329373349349
 30
0.0
 10
346.1561095506051
 20
-720.4207739791705
 30
0.0
 10
348.6283299390517
 20
-719.8213866381196
 30
0.0
 10
349.4395577105
 20
-719.5742699381499
 30
0.0
 10
350.6358602104677
 20
-719.131663508301
 30
0.0
 10
351.0303483636159
 20
-718.972308042927
 30
0.0
 10
351.8003341401641
 20
-718.6349681786085
 30
0.0
 10
352.1773351166285
 20
-718.4564468826196
 30
0.0
 10
353.2848513930423
 20
-717.8926647810927
 30
0.0
 10
353.9919366097155
 20
-717.4792564505334
 30
0.0
 10
355.0065019906144
 20
-716.8066571924276
 30
0.0
 10
355.3369986911841
 20
-716.573690772982
 30
0.0
 10
355.9825795136854
 20
-716.0906635010242
 30
0.0
 10
356.2986292830666
 20
-715.8397499222089
 30
0.0
 10
357.8241161959438
 20
-714.5570224416065
 30
0.0
 10
358.8757700296201
 20
-713.4399011137047
 30
0.0
 10
360.2311845543205
 20
-711.6644842735204
 30
0.0
 10
360.6468875423167
 20
-711.053315272659
 30
0.0
 10
361.3929126030876
 20
-709.8252990422958
 30
0.0
 10
361.7252938999819
 20
-709.2062350051198
 30
0.0
 10
362.3165039458883
 20
-707.9618894547906
 30
0.0
 10
362.5753079646851
 20
-707.3365970970001
 30
0.0
 10
363.024978842591
 20
-706.0829389509412
 30
0.0
 10
363.2159970018756
 20
-705.453185093927
 30
0.0
 10
363.6882926859868
 20
-703.5879063610175
 30
0.0
 10
363.8728733948807
 20
-702.3688059410132
 30
0.0
 10
363.9895758126004
 20
-700.5831624006456
 30
0.0
 10
364.001496137272
 20
-699.9947520696385
 30
0.0
 10
363.9824471423897
 20
-699.1289350845418
 30
0.0
 10
363.9699585463112
 20
-698.8428907881969
 30
0.0
 10
363.9424530939774
 20
-698.417672964908
 30
0.0
 10
363.9318203952163
 20
-698.2765579303398
 30
0.0
 10
363.9137341784726
 20
-698.0659238220059
 30
0.0
 10
363.9073493683904
 20
-697.9958859193791
 30
0.0
 10
363.893876347606
 20
-697.856156680284
 30
0.0
 10
363.8867093059256
 20
-697.7857713691172
 30
0.0
 10
363.8793902894826
 20
-697.7173007016415
 30
0.0
  0
SPLINE
  5
20C
330
23
100
AcDbEntity
 67
     1
  8
0
  6
Continuous
 62
     7
370
    25
100
AcDbSpline
210
0.0
220
0.0
230
1.0
 70
     8
 71
     3
 72
     8
 73
     4
 74
     0
 42
0.000000001
 43
0.00000001
 40
0.0
 40
0.0
 40
0.0
 40
0.0
 40
1.0
 40
1.0
 40
1.0
 40
1.0
 10
342.7079143142564
 20
-720.6420105599228
 30
0.0
 10
340.560157376539
 20
-720.653151561547
 30
0.0
 10
338.4072088322456
 20
-720.656689131537
 30
0.0
 10
336.2508565048385
 20
-720.6552416488607
 30
0.0
  0
SPLINE
  5
20F
330
23
100
AcDbEntity
 67
     1
  8
0
  6
Continuous
 62
     7
370
    25
100
AcDbSpline
210
0.0
220
0.0
230
1.0
 70
     8
 71
     3
 72
     8
 73
     4
 74
     0
 42
0.000000001
 43
0.00000001
 40
0.0
 40
0.0
 40
0.0
 40
0.0
 40
1.0
 40
1.0
 40
1.0
 40
1.0
 10
336.2508565048385
 20
-351.7793597544225
 30
0.0
 10
338.4072088322455
 20
-351.7779122717463
 30
0.0
 10
340.5601573765389
 20
-351.7814498417363
 30
0.0
 10
342.7079143142562
 20
-351.7925908433604
 30
0.0
  0
SPLINE
  5
219
330
23
100
AcDbEntity
 67
     1
  8
0
  6
Continuous
 62
     8
370
    25
100
AcDbSpline
210
0.0
220
0.0
230
1.0
 70
     8
 71
     3
 72
    14
 73
    10
 74
     0
 42
0.000000001
 43
0.00000001
 40
0.0
 40
0.0
 40
0.0
 40
0.0
 40
0.1299393483055816
 40
0.2639071140368747
 40
0.4008432604103188
 40
0.5419248297671528
 40
0.7414061925403087
 40
0.894727661794656
 40
1.0
 40
1.0
 40
1.0
 40
1.0
 10
573.4209635913244
 20
-713.0177101696638
 30
0.0
 10
573.4205888250377
 20
-713.3576763315882
 30
0.0
 10
573.4198276738514
 20
-714.0481483851545
 30
0.0
 10
573.4139893250808
 20
-715.053049432916
 30
0.0
 10
573.4045344087211
 20
-715.9924596431085
 30
0.0
 10
573.3899612619199
 20
-716.923773016895
 30
0.0
 10
573.3687527811829
 20
-717.6093255282927
 30
0.0
 10
573.3486197399384
 20
-717.992699780088
 30
0.0
 10
573.3367495637324
 20
-717.9722361367732
 30
0.0
 10
573.3319172701196
 20
-717.9639054826052
 30
0.0
  0
SPLINE
  5
21E
330
23
100
AcDbEntity
 67
     1
  8
0
  6
Continuous
 62
     8
370
    25
100
AcDbSpline
210
0.0
220
0.0
230
1.0
 70
     8
 71
     3
 72
    14
 73
    10
 74
     0
 42
0.000000001
 43
0.00000001
 40
0.0
 40
0.0
 40
0.0
 40
0.0
 40
0.1056235706213055
 40
0.2588818882861159
 40
0.4581274330129247
 40
0.5992607305968337
 40
0.7361931047357742
 40
0.8701000895470785
 40
1.0
 40
1.0
 40
1.0
 40
1.0
 10
573.3319225761855
 20
-354.4710438605164
 30
0.0
 10
573.3367599003767
 20
-354.4627920439299
 30
0.0
 10
573.3486161140373
 20
-354.4425669573595
 30
0.0
 10
573.3687989521457
 20
-354.8264939859012
 30
0.0
 10
573.3899897183592
 20
-355.5121428033428
 30
0.0
 10
573.4045396802927
 20
-356.4431303735911
 30
0.0
 10
573.4139914124173
 20
-357.3824838582186
 30
0.0
 10
573.4198287057384
 20
-358.386996329045
 30
0.0
 10
573.4205891463469
 20
-359.0770869581091
 30
0.0
 10
573.4209635913244
 20
-359.4168912336192
 30
0.0
  0
SPLINE
  5
21F
330
23
100
AcDbEntity
 67
     1
  8
0
  6
Continuous
 62
     8
370
    25
100
AcDbSpline
210
0.0
220
0.0
230
1.0
 70
     8
 71
     3
 72
     9
 73
     5
 74
     0
 42
0.000000001
 43
0.00000001
 40
0.0
 40
0.0
 40
0.0
 40
0.0
 40
0.0000240231534611
 40
1.0
 40
1.0
 40
1.0
 40
1.0
 10
363.8793902894826
 20
-404.2173007016417
 30
0.0
 10
363.8793920499816
 20
-404.2173007016417
 30
0.0
 10
363.9526754734219
 20
-404.2173007006897
 30
0.0
 10
363.9394815741172
 20
-404.2173007011656
 30
0.0
 10
363.9262879917716
 20
-404.2173007016416
 30
0.0
  0
SPLINE
  5
220
330
23
100
AcDbEntity
 67
     1
  8
0
  6
Continuous
 62
     8
370
    25
100
AcDbSpline
210
0.0
220
0.0
230
1.0
 70
    24
 71
     3
 72
     9
 73
     5
 74
     0
 42
0.000000001
 43
0.00000001
 40
0.0
 40
0.0
 40
0.0
 40
0.0
 40
0.2446383908775913
 40
1.0
 40
1.0
 40
1.0
 40
1.0
 10
363.9623455567407
 20
-668.2173007016418
 30
0.0
 10
363.9727658398221
 20
-668.2173007016418
 30
0.0
 10
364.015360475292
 20
-668.2173007016418
 30
0.0
 10
363.9379005461795
 20
-668.2173007016418
 30
0.0
 10
363.8793902894826
 20
-668.2173007016416
 30
0.0
  0
LINE
  5
223
330
23
100
AcDbEntity
 67
     1
  8
0
  6
Continuous
 62
     7
370
    25
100
AcDbLine
 10
364.732583821
 20
-442.2173007016
 30
0.0
 11
364.732583821
 21
-406.2173007016
 31
0.0
  0
LINE
  5
224
330
23
100
AcDbEntity
 67
     1
  8
0
  6
Continuous
 62
     7
370
    25
100
AcDbLine
 10
364.732583821
 20
-666.2173007016
 30
0.0
 11
364.732583821
 21
-630.2173007016
 31
0.0
  0
LINE
  5
225
330
23
100
AcDbEntity
 67
     1
  8
0
  6
Continuous
 62
     7
370
    25
100
AcDbLine
 10
352.7687937355
 20
-718.0933306148
 30
0.0
 11
420.4282662108
 21
-718.0725457017
 31
0.0
  0
LINE
  5
226
330
23
100
AcDbEntity
 67
     1
  8
0
  6
Continuous
 62
     7
370
    25
100
AcDbLine
 10
566.3174623498
 20
-718.0277287063
 30
0.0
 11
573.3319575885
 21
-718.0255738614
 31
0.0
  0
LINE
  5
227
330
23
100
AcDbEntity
 67
     1
  8
0
  6
Continuous
 62
     7
370
    25
100
AcDbLine
 10
573.3319408321
 20
-354.414737072
 30
0.0
 11
566.4438357956
 21
-354.4125037991
 31
0.0
  0
LINE
  5
228
330
23
100
AcDbEntity
 67
     1
  8
0
  6
Continuous
 62
     7
370
    25
100
AcDbLine
 10
420.5507105415
 20
-354.3652020869
 30
0.0
 11
352.7853213372
 21
-354.3432310794
 31
0.0
  0
LINE
  5
229
330
23
100
AcDbEntity
 67
     1
  8
0
  6
Continuous
 62
     7
370
    25
100
AcDbLine
 10
360.3949024788
 20
-667.5663555293
 30
0.0
 11
360.3949024788
 21
-404.8682458739
 31
0.0
  0
LINE
  5
22A
330
23
100
AcDbEntity
 67
     1
  8
0
  6
Continuous
 62
     7
370
    25
100
AcDbLine
 10
363.9936779046
 20
-404.2173007016
 30
0.0
 11
363.9936779046
 21
-372.5566121881
 31
0.0
  0
LINE
  5
22B
330
23
100
AcDbEntity
 67
     1
  8
0
  6
Continuous
 62
     7
370
    25
100
AcDbLine
 10
363.9936779046
 20
-699.8779892151
 30
0.0
 11
363.9936779046
 21
-668.2173007016
 31
0.0
  0
LINE
  5
22C
330
23
100
AcDbEntity
 67
     1
  8
0
  6
Continuous
 62
     7
370
    25
100
AcDbLine
 10
363.732583821
 20
-443.2173007016
 30
0.0
 11
360.3949024788
 21
-443.2173007016
 31
0.0
  0
LINE
  5
22D
330
23
100
AcDbEntity
 67
     1
  8
0
  6
Continuous
 62
     7
370
    25
100
AcDbLine
 10
360.3949024788
 20
-629.2173007016
 30
0.0
 11
363.732583821
 21
-629.2173007016
 31
0.0
  0
LINE
  5
22E
330
23
100
AcDbEntity
 67
     1
  8
0
  6
Continuous
 62
     7
370
    25
100
AcDbLine
 10
573.4209635913
 20
-713.0177101695
 30
0.0
 11
573.4209635913
 21
-359.4168912338
 31
0.0
  0
LINE
  5
22F
330
23
100
AcDbEntity
 67
     1
  8
0
  6
Continuous
 62
     7
370
    25
100
AcDbLine
 10
473.4209635913
 20
-536.2173007016
 30
0.0
 11
488.5442672348
 21
-536.2173007016
 31
0.0
  0
LINE
  5
230
330
23
100
AcDbEntity
 67
     1
  8
0
  6
Continuous
 62
     7
370
    25
100
AcDbLine
 10
567.4209635913
 20
-358.7173007016
 30
0.0
 11
552.4209635913
 21
-363.7173007016
 31
0.0
  0
LINE
  5
231
330
23
100
AcDbEntity
 67
     1
  8
0
  6
Continuous
 62
     7
370
    25
100
AcDbLine
 10
557.4209635913
 20
-348.7173007016
 30
0.0
 11
552.4209635913
 21
-363.7173007016
 31
0.0
  0
LINE
  5
232
330
23
100
AcDbEntity
 67
     1
  8
0
  6
Continuous
 62
     7
370
    25
100
AcDbLine
 10
434.4209635913
 20
-708.7173007016
 30
0.0
 11
552.4209635913
 21
-708.7173007016
 31
0.0
  0
LINE
  5
233
330
23
100
AcDbEntity
 67
     1
  8
0
  6
Continuous
 62
     7
370
    25
100
AcDbLine
 10
552.4209635913
 20
-708.7173007016
 30
0.0
 11
557.4209635913
 21
-723.7173007016
 31
0.0
  0
LINE
  5
234
330
23
100
AcDbEntity
 67
     1
  8
0
  6
Continuous
 62
     7
370
    25
100
AcDbLine
 10
557.4209635913
 20
-723.7173007016
 30
0.0
 11
429.4209635913
 21
-723.7173007016
 31
0.0
  0
LINE
  5
235
330
23
100
AcDbEntity
 67
     1
  8
0
  6
Continuous
 62
     7
370
    25
100
AcDbLine
 10
434.4209635913
 20
-708.7173007016
 30
0.0
 11
429.4209635913
 21
-723.7173007016
 31
0.0
  0
LINE
  5
236
330
23
100
AcDbEntity
 67
     1
  8
0
  6
Continuous
 62
     7
370
    25
100
AcDbLine
 10
567.4209635913
 20
-358.7173007016
 30
0.0
 11
567.4209635913
 21
-713.7173007016
 31
0.0
  0
LINE
  5
237
330
23
100
AcDbEntity
 67
     1
  8
0
  6
Continuous
 62
     7
370
    25
100
AcDbLine
 10
567.4209635913
 20
-713.7173007016
 30
0.0
 11
552.4209635913
 21
-708.7173007016
 31
0.0
  0
LINE
  5
238
330
23
100
AcDbEntity
 67
     1
  8
0
  6
Continuous
 62
     7
370
    25
100
AcDbLine
 10
552.4209635913
 20
-708.7173007016
 30
0.0
 11
552.4209635913
 21
-363.7173007016
 31
0.0
  0
LINE
  5
239
330
23
100
AcDbEntity
 67
     1
  8
0
  6
Continuous
 62
     7
370
    25
100
AcDbLine
 10
434.4209635913
 20
-363.7173007016
 30
0.0
 11
419.4209635913
 21
-358.7173007016
 31
0.0
  0
LINE
  5
23A
330
23
100
AcDbEntity
 67
     1
  8
0
  6
Continuous
 62
     7
370
    25
100
AcDbLine
 10
429.4209635913
 20
-348.7173007016
 30
0.0
 11
434.4209635913
 21
-363.7173007016
 31
0.0
  0
LINE
  5
23B
330
23
100
AcDbEntity
 67
     1
  8
0
  6
Continuous
 62
     7
370
    25
100
AcDbLine
 10
552.4209635913
 20
-363.7173007016
 30
0.0
 11
434.4209635913
 21
-363.7173007016
 31
0.0
  0
LINE
  5
23C
330
23
100
AcDbEntity
 67
     1
  8
0
  6
Continuous
 62
     7
370
    25
100
AcDbLine
 10
434.4209635913
 20
-363.7173007016
 30
0.0
 11
434.4209635913
 21
-708.7173007016
 31
0.0
  0
LINE
  5
23D
330
23
100
AcDbEntity
 67
     1
  8
0
  6
Continuous
 62
     7
370
    25
100
AcDbLine
 10
429.4209635913
 20
-348.7173007016
 30
0.0
 11
557.4209635913
 21
-348.7173007016
 31
0.0
  0
LINE
  5
23E
330
23
100
AcDbEntity
 67
     1
  8
0
  6
Continuous
 62
     7
370
    25
100
AcDbLine
 10
434.4209635913
 20
-708.7173007016
 30
0.0
 11
419.4209635913
 21
-713.7173007016
 31
0.0
  0
LINE
  5
23F
330
23
100
AcDbEntity
 67
     1
  8
0
  6
Continuous
 62
     7
370
    25
100
AcDbLine
 10
419.4209635913
 20
-713.7173007016
 30
0.0
 11
419.4209635913
 21
-358.7173007016
 31
0.0
  0
LINE
  5
240
330
23
100
AcDbEntity
 67
     1
  8
0
  6
Continuous
 62
     7
370
    25
100
AcDbLine
 10
352.6145252332
 20
-697.7173007016
 30
0.0
 11
363.8793902895
 21
-697.7173007016
 31
0.0
  0
LINE
  5
241
330
23
100
AcDbEntity
 67
     1
  8
0
  6
Continuous
 62
     7
370
    25
100
AcDbLine
 10
352.6145252332
 20
-374.7173007016
 30
0.0
 11
363.8793902895
 21
-374.7173007016
 31
0.0
  0
LINE
  5
242
330
23
100
AcDbEntity
 67
     1
  8
0
  6
Continuous
 62
     7
370
    25
100
AcDbLine
 10
363.8793902895
 20
-668.2173007016
 30
0.0
 11
360.1279166934
 21
-668.2173007016
 31
0.0
  0
LINE
  5
243
330
23
100
AcDbEntity
 67
     1
  8
0
  6
Continuous
 62
     7
370
    25
100
AcDbLine
 10
362.7589571576
 20
-668.2173007016
 30
0.0
 11
362.7589571576
 21
-697.7173007016
 31
0.0
  0
LINE
  5
244
330
23
100
AcDbEntity
 67
     1
  8
0
  6
Continuous
 62
     7
370
    25
100
AcDbLine
 10
352.6145252332
 20
-697.7173007016
 30
0.0
 11
352.6145252332
 21
-374.7173007016
 31
0.0
  0
LINE
  5
245
330
23
100
AcDbEntity
 67
     1
  8
0
  6
Continuous
 62
     7
370
    25
100
AcDbLine
 10
362.7589571576
 20
-374.7173007016
 30
0.0
 11
362.7589571576
 21
-404.2173007016
 31
0.0
  0
LINE
  5
246
330
23
100
AcDbEntity
 67
     1
  8
0
  6
Continuous
 62
     7
370
    25
100
AcDbLine
 10
360.1279166934
 20
-404.2173007016
 30
0.0
 11
363.8793902895
 21
-404.2173007016
 31
0.0
  0
LINE
  5
247
330
23
100
AcDbEntity
 67
     1
  8
0
  6
Continuous
 62
     7
370
    25
100
AcDbLine
 10
360.1279166934
 20
-668.2173007016
 30
0.0
 11
360.1279166934
 21
-404.2173007016
 31
0.0
  0
LINE
  5
248
330
23
100
AcDbEntity
 67
     1
  8
0
  6
Continuous
 62
     7
370
    25
100
AcDbLine
 10
101.4818522834
 20
-708.3921498403
 30
0.0
 11
341.9414685688
 21
-708.3921498403
 31
0.0
  0
LINE
  5
249
330
23
100
AcDbEntity
 67
     1
  8
0
  6
Continuous
 62
     7
370
    25
100
AcDbLine
 10
341.9414685688
 20
-364.042451563
 30
0.0
 11
101.4818522834
 21
-364.042451563
 31
0.0
  0
LINE
  5
24A
330
23
100
AcDbEntity
 67
     1
  8
0
  6
Continuous
 62
     7
370
    25
100
AcDbLine
 10
101.6523187714
 20
-354.0668110604
 30
0.0
 11
342.1119350568
 21
-354.0668110604
 31
0.0
  0
LINE
  5
24B
330
23
100
AcDbEntity
 67
     1
  8
0
  6
Continuous
 62
     7
370
    25
100
AcDbLine
 10
342.1119350568
 20
-718.3677903429
 30
0.0
 11
101.6523187714
 21
-718.3677903429
 31
0.0
  0
LINE
  5
24C
330
23
100
AcDbEntity
 67
     1
  8
0
  6
Continuous
 62
     7
370
    25
100
AcDbLine
 10
360.3949024788
 20
-405.2173007016
 30
0.0
 11
363.732583821
 21
-405.2173007016
 31
0.0
  0
LINE
  5
24D
330
23
100
AcDbEntity
 67
     1
  8
0
  6
Continuous
 62
     7
370
    25
100
AcDbLine
 10
363.732583821
 20
-667.2173007016
 30
0.0
 11
360.3949024788
 21
-667.2173007016
 31
0.0
  0
LINE
  5
24E
330
23
100
AcDbEntity
 67
     1
  8
0
  6
Continuous
 62
     7
370
    25
100
AcDbLine
 10
342.7079143143
 20
-351.7925908434
 30
0.0
 11
342.1119350568
 21
-354.0668110604
 31
0.0
  0
LINE
  5
24F
330
23
100
AcDbEntity
 67
     1
  8
0
  6
Continuous
 62
     7
370
    25
100
AcDbLine
 10
342.7079143143
 20
-720.6420105599
 30
0.0
 11
342.1119350568
 21
-718.3677903429
 31
0.0
  0
LINE
  5
250
330
23
100
AcDbEntity
 67
     1
  8
0
  6
Continuous
 62
     7
370
    25
100
AcDbLine
 10
363.8793902895
 20
-374.7173007016
 30
0.0
 11
363.8793902895
 21
-404.2173007016
 31
0.0
  0
LINE
  5
251
330
23
100
AcDbEntity
 67
     1
  8
0
  6
Continuous
 62
     7
370
    25
100
AcDbLine
 10
363.8793902895
 20
-668.2173007016
 30
0.0
 11
363.8793902895
 21
-697.7173007016
 31
0.0
  0
LINE
  5
252
330
23
100
AcDbEntity
 67
     1
  8
0
  6
Continuous
 62
     7
370
    25
100
AcDbLine
 10
102.2105951626
 20
-720.4981387397
 30
0.0
 11
336.2508565048
 21
-720.6552416489
 31
0.0
  0
LINE
  5
253
330
23
100
AcDbEntity
 67
     1
  8
0
  6
Continuous
 62
     7
370
    25
100
AcDbLine
 10
102.2105951626
 20
-720.4981387397
 30
0.0
 11
101.6523187714
 21
-718.3677903429
 31
0.0
  0
LINE
  5
254
330
23
100
AcDbEntity
 67
     1
  8
0
  6
Continuous
 62
     7
370
    25
100
AcDbLine
 10
102.2105951626
 20
-351.9364626636
 30
0.0
 11
101.6523187714
 21
-354.0668110604
 31
0.0
  0
LINE
  5
255
330
23
100
AcDbEntity
 67
     1
  8
0
  6
Continuous
 62
     7
370
    25
100
AcDbLine
 10
336.2508565048
 20
-351.7793597544
 30
0.0
 11
102.2105951626
 21
-351.9364626636
 31
0.0
  0
LINE
  5
256
330
23
100
AcDbEntity
 67
     1
  8
0
  6
Continuous
 62
     8
370
    25
100
AcDbLine
 10
360.3949024788
 20
-666.2173007016
 30
0.0
 11
364.732583821
 21
-666.2173007016
 31
0.0
  0
LINE
  5
257
330
23
100
AcDbEntity
 67
     1
  8
0
  6
Continuous
 62
     8
370
    25
100
AcDbLine
 10
364.732583821
 20
-406.2173007016
 30
0.0
 11
360.3949024788
 21
-406.2173007016
 31
0.0
  0
LINE
  5
258
330
23
100
AcDbEntity
 67
     1
  8
0
  6
Continuous
 62
     8
370
    25
100
AcDbLine
 10
360.3949024788
 20
-442.2173007016
 30
0.0
 11
364.732583821
 21
-442.2173007016
 31
0.0
  0
LINE
  5
259
330
23
100
AcDbEntity
 67
     1
  8
0
  6
Continuous
 62
     8
370
    25
100
AcDbLine
 10
364.732583821
 20
-630.2173007016
 30
0.0
 11
360.3949024788
 21
-630.2173007016
 31
0.0
  0
LINE
  5
25A
330
23
100
AcDbEntity
 67
     1
  8
0
  6
Continuous
 62
     8
370
    25
100
AcDbLine
 10
419.4209635913
 20
-359.3661122099
 30
0.0
 11
359.0514120281
 21
-359.3458349196
 31
0.0
  0
LINE
  5
25B
330
23
100
AcDbEntity
 67
     1
  8
0
  6
Continuous
 62
     8
370
    25
100
AcDbLine
 10
567.4209635913
 20
-359.4168912338
 30
0.0
 11
573.4209635913
 21
-359.4168912338
 31
0.0
  0
LINE
  5
25C
330
23
100
AcDbEntity
 67
     1
  8
0
  6
Continuous
 62
     8
370
    25
100
AcDbLine
 10
567.4209635913
 20
-713.0177101695
 30
0.0
 11
573.4209635913
 21
-713.0177101695
 31
0.0
  0
LINE
  5
25D
330
23
100
AcDbEntity
 67
     1
  8
0
  6
Continuous
 62
     8
370
    25
100
AcDbLine
 10
359.0563885837
 20
-713.0887648122
 30
0.0
 11
419.4209635913
 21
-713.0684891934
 31
0.0
  0
ARC
  5
25E
330
23
100
AcDbEntity
 67
     1
  8
0
  6
Continuous
 62
     7
370
    25
100
AcDbCircle
 10
363.732583821
 20
-666.2173007016
 30
0.0
 40
1.000000000000114
100
AcDbArc
 50
270.0
 51
360.0
  0
ARC
  5
25F
330
23
100
AcDbEntity
 67
     1
  8
0
  6
Continuous
 62
     7
370
    25
100
AcDbCircle
 10
363.732583821
 20
-406.2173007016
 30
0.0
 40
1.0
100
AcDbArc
 50
360.0
 51
90.0
  0
ARC
  5
260
330
23
100
AcDbEntity
 67
     1
  8
0
  6
Continuous
 62
     7
370
    25
100
AcDbCircle
 10
363.732583821
 20
-442.2173007016
 30
0.0
 40
1.0
100
AcDbArc
 50
270.0
 51
0.0
  0
ARC
  5
261
330
23
100
AcDbEntity
 67
     1
  8
0
  6
Continuous
 62
     7
370
    25
100
AcDbCircle
 10
363.732583821
 20
-630.2173007016
 30
0.0
 40
1.000000000000114
100
AcDbArc
 50
0.0
 51
90.0
  0
ARC
  5
262
330
23
100
AcDbEntity
 67
     1
  8
0
  6
Continuous
 62
     7
370
    25
100
AcDbCircle
 10
362.9935249843
 20
-668.2172976161
 30
0.0
 40
0.9999969205614108
100
AcDbArc
 50
0.2445534758
 51
89.8852107071
  0
ARC
  5
263
330
23
100
AcDbEntity
 67
     1
  8
0
  6
Continuous
 62
     7
370
    25
100
AcDbCircle
 10
362.9935249208
 20
-404.2173036769
 30
0.0
 40
0.9999970309494046
100
AcDbArc
 50
270.1147929218
 51
0.6389205475
  0
ARC
  5
264
330
23
100
AcDbEntity
 67
     1
  8
0
  6
Continuous
 62
     7
370
    25
100
AcDbCircle
 10
355.6096976999
 20
-459.2429466629
 30
0.0
 40
23.25000000000056
100
AcDbArc
 50
281.8772277096
 51
66.8971917984
  0
ARC
  5
265
330
23
100
AcDbEntity
 67
     1
  8
0
  6
Continuous
 62
     7
370
    25
100
AcDbCircle
 10
557.4209635913
 20
-358.7173007016
 30
0.0
 40
10.00000000000034
100
AcDbArc
 50
0.0
 51
90.0
  0
ARC
  5
266
330
23
100
AcDbEntity
 67
     1
  8
0
  6
Continuous
 62
     7
370
    25
100
AcDbCircle
 10
557.4209635913
 20
-713.7173007016
 30
0.0
 40
10.00000000000045
100
AcDbArc
 50
270.0
 51
360.0
  0
ARC
  5
267
330
23
100
AcDbEntity
 67
     1
  8
0
  6
Continuous
 62
     7
370
    25
100
AcDbCircle
 10
429.4209635913
 20
-358.7173007016
 30
0.0
 40
10.0
100
AcDbArc
 50
90.0
 51
180.0
  0
ARC
  5
268
330
23
100
AcDbEntity
 67
     1
  8
0
  6
Continuous
 62
     7
370
    25
100
AcDbCircle
 10
429.4209635913
 20
-713.7173007016
 30
0.0
 40
9.999999999999943
100
AcDbArc
 50
180.0
 51
270.0
  0
ARC
  5
269
330
23
100
AcDbEntity
 67
     1
  8
0
  6
Continuous
 62
     7
370
    25
100
AcDbCircle
 10
341.9405722564
 20
-697.7181968635
 30
0.0
 40
10.67395301436935
100
AcDbArc
 50
270.004811237
 51
0.0048104291
  0
ARC
  5
26A
330
23
100
AcDbEntity
 67
     1
  8
0
  6
Continuous
 62
     7
370
    25
100
AcDbCircle
 10
342.110201141
 20
-697.7190343263
 30
0.0
 40
20.6487560893573
100
AcDbArc
 50
270.004811237
 51
0.0048104291
  0
ARC
  5
26B
330
23
100
AcDbEntity
 67
     1
  8
0
  6
Continuous
 62
     7
370
    25
100
AcDbCircle
 10
501.2883058998
 20
-710.6584640073
 30
0.0
 40
159.3629528694755
100
AcDbArc
 50
179.1851643579
 51
182.772817145
  0
ARC
  5
26C
330
23
100
AcDbEntity
 67
     1
  8
0
  6
Continuous
 62
     7
370
    25
100
AcDbCircle
 10
341.9405722564
 20
-374.7164045398
 30
0.0
 40
10.67395301436901
100
AcDbArc
 50
359.9951895709
 51
89.995188763
  0
ARC
  5
26D
330
23
100
AcDbEntity
 67
     1
  8
0
  6
Continuous
 62
     7
370
    25
100
AcDbCircle
 10
501.2883059
 20
-361.776137396
 30
0.0
 40
159.3629528696983
100
AcDbArc
 50
177.227182855
 51
180.8148356421
  0
ARC
  5
26E
330
23
100
AcDbEntity
 67
     1
  8
0
  6
Continuous
 62
     7
370
    25
100
AcDbCircle
 10
342.110201141
 20
-374.715567077
 30
0.0
 40
20.64875608935719
100
AcDbArc
 50
359.9951895709
 51
89.995188763
  0
ARC
  5
26F
330
23
100
AcDbEntity
 67
     1
  8
0
  6
Continuous
 62
     7
370
    25
100
AcDbCircle
 10
101.5049613745
 20
-536.2173007016
 30
0.0
 40
172.1748506894599
100
AcDbArc
 50
90.0076901672
 51
269.9923098328
  0
ARC
  5
270
330
23
100
AcDbEntity
 67
     1
  8
0
  6
Continuous
 62
     7
370
    25
100
AcDbCircle
 10
260.8286896145
 20
-361.776137396
 30
0.0
 40
159.3629528696117
100
AcDbArc
 50
177.227182855
 51
180.8148356421
  0
ARC
  5
271
330
23
100
AcDbEntity
 67
     1
  8
0
  6
Continuous
 62
     7
370
    25
100
AcDbCircle
 10
260.8286896144
 20
-710.6584640073
 30
0.0
 40
159.3629528695413
100
AcDbArc
 50
179.1851643579
 51
182.772817145
  0
ARC
  5
272
330
23
100
AcDbEntity
 67
     1
  8
0
  6
Continuous
 62
     7
370
    25
100
AcDbCircle
 10
361.7608942454
 20
-404.2192378041
 30
0.0
 40
0.9980647919990198
100
AcDbArc
 50
270.1116364126
 51
0.1112030687
  0
ARC
  5
273
330
23
100
AcDbEntity
 67
     1
  8
0
  6
Continuous
 62
     7
370
    25
100
AcDbCircle
 10
361.7608942454
 20
-668.2153635991
 30
0.0
 40
0.998064791998963
100
AcDbArc
 50
359.8887969313
 51
89.8883635874
  0
ARC
  5
274
330
23
100
AcDbEntity
 67
     1
  8
0
  6
Continuous
 62
     7
370
    25
100
AcDbCircle
 10
101.6767681126
 20
-536.2173007016
 30
0.0
 40
182.1504912820909
100
AcDbArc
 50
90.0076905863
 51
269.9923094137
  0
ARC
  5
275
330
23
100
AcDbEntity
 67
     1
  8
0
  6
Continuous
 62
     7
370
    25
100
AcDbCircle
 10
362.8813273773
 20
-404.2192378041
 30
0.0
 40
0.9980647919989063
100
AcDbArc
 50
270.1116364126
 51
0.1112030687
  0
ARC
  5
276
330
23
100
AcDbEntity
 67
     1
  8
0
  6
Continuous
 62
     7
370
    25
100
AcDbCircle
 10
362.8813273773
 20
-668.2153635991
 30
0.0
 40
0.9980647919988496
100
AcDbArc
 50
359.8887969313
 51
89.8883635874
  0
ARC
  5
277
330
23
100
AcDbEntity
 67
     1
  8
0
  6
Continuous
 62
     7
370
    25
100
AcDbCircle
 10
102.3330778519
 20
-536.2173007016
 30
0.0
 40
184.2808787422505
100
AcDbArc
 50
90.038081768
 51
269.961918232
  0
ARC
  5
278
330
23
100
AcDbEntity
 67
     1
  8
0
  6
Continuous
 62
     7
370
    25
100
AcDbCircle
 10
356.2362594969
 20
-613.7173007016
 30
0.0
 40
23.25000000000014
100
AcDbArc
 50
291.4342514164
 51
79.6962642701
  0
ARC
  5
279
330
23
100
AcDbEntity
 67
     1
  8
0
  6
Continuous
 62
     8
370
    25
100
AcDbCircle
 10
355.6096976999
 20
-459.2429466629
 30
0.0
 40
22.25000000000077
100
AcDbArc
 50
282.4193632277
 51
65.794075058
  0
ARC
  5
27A
330
23
100
AcDbEntity
 67
     1
  8
0
  6
Continuous
 62
     8
370
    25
100
AcDbCircle
 10
356.2362594969
 20
-613.7173007016
 30
0.0
 40
22.25000000000014
100
AcDbArc
 50
292.448773962
 51
79.2277639974
  0
VIEWPORT
  5
27D
330
23
100
AcDbEntity
 67
     1
  8
0
100
AcDbViewport
 10
0.0
 20
0.0
 30
0.0
 40
205.6
 41
156.0
 68
     1
 69
     1
 12
245.7364336468
 22
544.1729432369
 13
0.0
 23
0.0
 14
10.0
 24
10.0
 15
10.0
 25
10.0
 16
0.0
 26
0.0
 36
1.0
 17
0.0
 27
0.0
 37
0.0
 42
50.0
 43
0.0
 44
0.0
 45
847.62
 50
0.0
 51
0.0
 72
   100
 90
   557152
  1

281
     0
 71
     1
 74
     0
110
0.0
120
0.0
130
0.0
111
1.0
121
0.0
131
0.0
112
0.0
122
1.0
132
0.0
 79
     0
146
0.0
  0
ENDSEC
  0
SECTION
  2
OBJECTS
  0
DICTIONARY
  5
C
330
0
100
AcDbDictionary
281
     1
  3
ACAD_GROUP
350
D
  3
ACAD_LAYOUT
350
1A
  3
ACAD_MLINESTYLE
350
17
  3
ACAD_PLOTSETTINGS
350
19
  3
ACAD_PLOTSTYLENAME
350
E
  3
ACAD_SCALELIST
350
47
  0
DICTIONARY
  5
D
102
{ACAD_REACTORS
330
C
102
}
330
C
100
AcDbDictionary
281
     1
  0
DICTIONARY
  5
1A
102
{ACAD_REACTORS
330
C
102
}
330
C
100
AcDbDictionary
281
     1
  3
_Left
350
1E
  3
_Top
350
26
  3
Model
350
22
  0
DICTIONARY
  5
17
102
{ACAD_REACTORS
330
C
102
}
330
C
100
AcDbDictionary
281
     1
  3
Standard
350
18
  0
DICTIONARY
  5
19
102
{ACAD_REACTORS
330
C
102
}
330
C
100
AcDbDictionary
281
     1
  0
ACDBDICTIONARYWDFLT
  5
E
102
{ACAD_REACTORS
330
C
102
}
330
C
100
AcDbDictionary
281
     1
  3
Normal
350
F
100
AcDbDictionaryWithDefault
340
F
  0
DICTIONARY
  5
47
102
{ACAD_REACTORS
330
C
102
}
330
C
100
AcDbDictionary
281
     1
  3
A0
350
48
  3
A1
350
49
  3
A2
350
4A
  3
A3
350
4B
  3
A4
350
4C
  3
A5
350
4D
  3
A6
350
4E
  3
A7
350
4F
  3
A8
350
50
  3
A9
350
51
  3
B0
350
52
  3
B1
350
53
  3
B2
350
54
  3
B3
350
55
  3
B4
350
56
  3
B5
350
57
  3
B6
350
58
  3
B7
350
59
  3
B8
350
5A
  3
B9
350
5B
  3
C0
350
5C
  3
C1
350
5D
  3
C2
350
5E
  3
C3
350
5F
  3
C4
350
60
  3
C5
350
61
  3
C6
350
62
  3
C7
350
63
  3
C8
350
64
  3
C9
350
65
  3
D0
350
66
  3
D1
350
67
  3
D2
350
68
  0
LAYOUT
  5
1E
102
{ACAD_REACTORS
330
1A
102
}
330
1A
100
AcDbPlotSettings
  1

  2
none_device
  4
ISO_A4_(210.00_x_297.00_MM)
  6

 40
7.5
 41
20.0
 42
7.5
 43
20.0
 44
210.0
 45
297.0
 46
0.0
 47
0.0
 48
0.0
 49
0.0
140
0.0
141
0.0
142
1.0
143
4.2615384615
 70
   688
 72
     1
 73
     1
 74
     1
  7

 75
     0
147
0.2346570397
148
-348.7173007016
149
-128.6729432369
100
AcDbLayout
  1
_Left
 70
     1
 71
     1
 10
263.4865314709
 20
96.7114047753
 11
1529.1634545478
 21
991.6344816984
 12
0.0
 22
0.0
 32
0.0
 14
1.0000000000E+20
 24
1.0000000000E+20
 34
1.0000000000E+20
 15
-1.0000000000E+20
 25
-1.0000000000E+20
 35
-1.0000000000E+20
146
0.0
 13
0.0
 23
0.0
 33
0.0
 16
1.0
 26
0.0
 36
0.0
 17
0.0
 27
1.0
 37
0.0
 76
     0
330
1B
331
27B
  0
LAYOUT
  5
26
102
{ACAD_REACTORS
330
1A
102
}
330
1A
100
AcDbPlotSettings
  1

  2
none_device
  4
ANSI_A_(11.00_x_8.50_Inches)
  6

 40
6.35
 41
19.05
 42
6.35000508
 43
19.05000254
 44
279.4
 45
215.9
 46
70.1442801747
 47
-51.066390031
 48
0.0
 49
0.0
140
0.0
141
0.0
142
0.0101263538
143
1.0
 70
  1696
 72
     0
 73
     0
 74
     1
  7

 75
     0
147
0.0084235859
148
2081.4816459619
149
-3268.2927582165
100
AcDbLayout
  1
_Top
 70
     1
 71
     2
 10
0.0
 20
0.0
 11
0.0
 21
0.0
 12
0.0
 22
0.0
 32
0.0
 14
-81.9480962977
 24
128.6729432369
 34
0.0
 15
573.4209635913
 25
959.6729432369
 35
0.0
146
0.0
 13
0.0
 23
0.0
 33
0.0
 16
1.0
 26
0.0
 36
0.0
 17
0.0
 27
1.0
 37
0.0
 76
     0
330
23
331
27D
  0
LAYOUT
  5
22
102
{ACAD_REACTORS
330
1A
102
}
330
1A
100
AcDbPlotSettings
  1

  2
none_device
  4
Letter_(8.50_x_11.00_Inches)
  6

 40
6.35
 41
6.35
 42
6.35000508
 43
6.35000508
 44
215.9
 45
279.4
 46
0.0
 47
0.0
 48
0.0
 49
0.0
140
0.0
141
0.0
142
1.0
143
1.0
 70
  1712
 72
     1
 73
     0
 74
     0
  7

 75
     0
147
1.0
148
0.0
149
0.0
100
AcDbLayout
  1
Model
 70
     1
 71
     0
 10
0.0
 20
0.0
 11
420.0
 21
297.0
 12
0.0
 22
0.0
 32
0.0
 14
-81.9480962977
 24
128.6729432369
 34
0.0
 15
573.4209635913
 25
959.6729432369
 35
0.0
146
0.0
 13
0.0
 23
0.0
 33
0.0
 16
1.0
 26
0.0
 36
0.0
 17
0.0
 27
1.0
 37
0.0
 76
     0
330
1F
331
29
  0
MLINESTYLE
  5
18
102
{ACAD_REACTORS
330
17
102
}
330
17
100
AcDbMlineStyle
  2
Standard
 70
     0
  3

 62
   256
 51
90.0
 52
90.0
 71
     2
 49
0.5
 62
   256
  6
BYLAYER
 49
-0.5
 62
   256
  6
BYLAYER
  0
ACDBPLACEHOLDER
  5
F
102
{ACAD_REACTORS
330
E
102
}
330
E
  0
SCALE
  5
48
102
{ACAD_REACTORS
330
47
102
}
330
47
100
AcDbScale
 70
     0
300
1:1
140
1.0
141
1.0
290
     1
  0
SCALE
  5
49
102
{ACAD_REACTORS
330
47
102
}
330
47
100
AcDbScale
 70
     0
300
1:2
140
1.0
141
2.0
290
     0
  0
SCALE
  5
4A
102
{ACAD_REACTORS
330
47
102
}
330
47
100
AcDbScale
 70
     0
300
1:4
140
1.0
141
4.0
290
     0
  0
SCALE
  5
4B
102
{ACAD_REACTORS
330
47
102
}
330
47
100
AcDbScale
 70
     0
300
1:5
140
1.0
141
5.0
290
     0
  0
SCALE
  5
4C
102
{ACAD_REACTORS
330
47
102
}
330
47
100
AcDbScale
 70
     0
300
1:8
140
1.0
141
8.0
290
     0
  0
SCALE
  5
4D
102
{ACAD_REACTORS
330
47
102
}
330
47
100
AcDbScale
 70
     0
300
1:10
140
1.0
141
10.0
290
     0
  0
SCALE
  5
4E
102
{ACAD_REACTORS
330
47
102
}
330
47
100
AcDbScale
 70
     0
300
1:16
140
1.0
141
16.0
290
     0
  0
SCALE
  5
4F
102
{ACAD_REACTORS
330
47
102
}
330
47
100
AcDbScale
 70
     0
300
1:20
140
1.0
141
20.0
290
     0
  0
SCALE
  5
50
102
{ACAD_REACTORS
330
47
102
}
330
47
100
AcDbScale
 70
     0
300
1:30
140
1.0
141
30.0
290
     0
  0
SCALE
  5
51
102
{ACAD_REACTORS
330
47
102
}
330
47
100
AcDbScale
 70
     0
300
1:40
140
1.0
141
40.0
290
     0
  0
SCALE
  5
52
102
{ACAD_REACTORS
330
47
102
}
330
47
100
AcDbScale
 70
     0
300
1:50
140
1.0
141
50.0
290
     0
  0
SCALE
  5
53
102
{ACAD_REACTORS
330
47
102
}
330
47
100
AcDbScale
 70
     0
300
1:100
140
1.0
141
100.0
290
     0
  0
SCALE
  5
54
102
{ACAD_REACTORS
330
47
102
}
330
47
100
AcDbScale
 70
     0
300
2:1
140
2.0
141
1.0
290
     0
  0
SCALE
  5
55
102
{ACAD_REACTORS
330
47
102
}
330
47
100
AcDbScale
 70
     0
300
4:1
140
4.0
141
1.0
290
     0
  0
SCALE
  5
56
102
{ACAD_REACTORS
330
47
102
}
330
47
100
AcDbScale
 70
     0
300
8:1
140
8.0
141
1.0
290
     0
  0
SCALE
  5
57
102
{ACAD_REACTORS
330
47
102
}
330
47
100
AcDbScale
 70
     0
300
10:1
140
10.0
141
1.0
290
     0
  0
SCALE
  5
58
102
{ACAD_REACTORS
330
47
102
}
330
47
100
AcDbScale
 70
     0
300
100:1
140
100.0
141
1.0
290
     0
  0
SCALE
  5
59
102
{ACAD_REACTORS
330
47
102
}
330
47
100
AcDbScale
 70
     0
300
1/128" = 1'-0"
140
0.0078125
141
12.0
290
     0
  0
SCALE
  5
5A
102
{ACAD_REACTORS
330
47
102
}
330
47
100
AcDbScale
 70
     0
300
1/64" = 1'-0"
140
0.015625
141
12.0
290
     0
  0
SCALE
  5
5B
102
{ACAD_REACTORS
330
47
102
}
330
47
100
AcDbScale
 70
     0
300
1/32" = 1'-0"
140
0.03125
141
12.0
290
     0
  0
SCALE
  5
5C
102
{ACAD_REACTORS
330
47
102
}
330
47
100
AcDbScale
 70
     0
300
1/16" = 1'-0"
140
0.0625
141
12.0
290
     0
  0
SCALE
  5
5D
102
{ACAD_REACTORS
330
47
102
}
330
47
100
AcDbScale
 70
     0
300
3/32" = 1'-0"
140
0.09375
141
12.0
290
     0
  0
SCALE
  5
5E
102
{ACAD_REACTORS
330
47
102
}
330
47
100
AcDbScale
 70
     0
300
1/8" = 1'-0"
140
0.125
141
12.0
290
     0
  0
SCALE
  5
5F
102
{ACAD_REACTORS
330
47
102
}
330
47
100
AcDbScale
 70
     0
300
3/16" = 1'-0"
140
0.1875
141
12.0
290
     0
  0
SCALE
  5
60
102
{ACAD_REACTORS
330
47
102
}
330
47
100
AcDbScale
 70
     0
300
1/4" = 1'-0"
140
0.25
141
12.0
290
     0
  0
SCALE
  5
61
102
{ACAD_REACTORS
330
47
102
}
330
47
100
AcDbScale
 70
     0
300
3/8" = 1'-0"
140
0.375
141
12.0
290
     0
  0
SCALE
  5
62
102
{ACAD_REACTORS
330
47
102
}
330
47
100
AcDbScale
 70
     0
300
1/2" = 1'-0"
140
0.5
141
12.0
290
     0
  0
SCALE
  5
63
102
{ACAD_REACTORS
330
47
102
}
330
47
100
AcDbScale
 70
     0
300
3/4" = 1'-0"
140
0.75
141
12.0
290
     0
  0
SCALE
  5
64
102
{ACAD_REACTORS
330
47
102
}
330
47
100
AcDbScale
 70
     0
300
1" = 1'-0"
140
1.0
141
12.0
290
     0
  0
SCALE
  5
65
102
{ACAD_REACTORS
330
47
102
}
330
47
100
AcDbScale
 70
     0
300
1-1/2" = 1'-0"
140
1.5
141
12.0
290
     0
  0
SCALE
  5
66
102
{ACAD_REACTORS
330
47
102
}
330
47
100
AcDbScale
 70
     0
300
3" = 1'-0"
140
3.0
141
12.0
290
     0
  0
SCALE
  5
67
102
{ACAD_REACTORS
330
47
102
}
330
47
100
AcDbScale
 70
     0
300
6" = 1'-0"
140
6.0
141
12.0
290
     0
  0
SCALE
  5
68
102
{ACAD_REACTORS
330
47
102
}
330
47
100
AcDbScale
 70
     0
300
1'-0" = 1'-0"
140
12.0
141
12.0
290
     0
  0
ENDSEC
  0
EOF
